Gerry And The Pacemakers - Away From You Text Guitar Tab

Learn song with the online tabulature player
Away From You
Gerry And The Pacemakers
Written by Les Chadwick and Gerry Marsden; released as a B-side to "How Do 
You Do It?"

Intro:
G|------- ------- ------- -------|------- ------- ------- -------|
D|5-----------5------------------|------------------------4------|
A|----------------5-----------5--|3-----------3---5--------------|
E|-------------------------------|-------------------------------|
  oooooooooooooooooooooooooooooooooooooooooooooooo


G|------- ------- ------- -------|------- ------- ------- -------|
D|5-----------5------------------|------------------------4------|
A|----------------5-----------5--|3-----------3---5--------------|
E|-------------------------------|-------------------------------|
  oooooooooooooooooooooooooooooooooooooooooooooooo

Verse:
G|------- ------- ------- -------|------- ------- ------- -------|
D|5-----------5------------------|6-----------6-----------4------|
A|----------------6-----------6--|----------------5--------------|
E|-------------------------------|-------------------------------|
          When    I'm     a   -   way     from you,


G|------- ------- 3------ ----3--|------- ------- ------- -------|
D|5-----------5------------------|------------------------4------|
A|-------------------------------|3-----------3---5--------------|
E|-------------------------------|-------------------------------|
          no      won  -  der     I       feel blue


G|------- ------- ------- -------|------- ------- ------- -------|
D|5-----------5------------------|------------------------5------|
A|----------------5--------------|----------------7-----------7--|
E|------------------------7------|8-----------8------------------|
              Without     your    love,
                                             (without     your

G|------- ------- ------- -------|------- ------- ------- -------|
D|------------------------5------|5-----------5------------------|
A|4-----------4---7-----------7--|----------------5-------3------|
E|-------------------------------|-------------------------------|
              without     your    charms,
  love)

G|------- ------- ------- -------|------- ------- ------- -------|
D|----------------4-------7------|5-----------5------------------|
A|5-----------5------------------|----------------5-----------5--|
E|-------------------------------|-------------------------------|
                  Want you in my  arms.
                                  ooooooooooooooooooooooooooooooo

G|------- ------- ------- -------|------- ------- ------- -------|
D|------------------------4------|5-----------5------------------|
A|3-----------3---5--------------|----------------5-----------5--|
E|-------------------------------|-------------------------------|
  oooooooooooooooo                ooooooooooooooooooooooooooooooo


G|------- ------- ------- -------|
D|------------------------4------|
A|3-----------3---5--------------|
E|-------------------------------|
  ooooooooooooooo

Verse:
G|------- ------- ------- -------|------- ------- ------- -------|
D|5-----------5------------------|6-----------6-----------4------|
A|----------------6-----------6--|----------------5--------------|
E|-------------------------------|-------------------------------|
      I   dream about     you     eve  -  ry  night,


G|------- ------- 3------ ----3--|------- ------- ------- -------|
D|5-----------5------------------|------------------------4------|
A|-------------------------------|3-----------3---5--------------|
E|-------------------------------|-------------------------------|
          ho- ping, waiting   for you     to  write,


G|------- ------- ------- -------|------- ------- ------- -------|
D|5-----------5------------------|------------------------5------|
A|----------------5--------------|----------------7-----------7--|
E|------------------------7------|8-----------8------------------|
          Un   -  til,   at      last,
                                         (un   -  til,    at

G|------- ------- ------- -------|------- ------- ------- -------|
D|------------------------5------|5-----------5------------------|
A|4-----------4---7-----------7--|----------------5-------3------|
E|-------------------------------|-------------------------------|
                          I       find
  last)

G|------- ------- ------- -------|------- ------- ------- -------|
D|----------------4-------7------|5-----------5------------------|
A|5-----------5------------------|-------------------------------|
E|-------------------------------|----------------7-----------7--|
              Can't   you out my  mind,   out my  mind,       can't
                  get

G|------- ------- ------- -------|
D|-------------------------------|
A|----------------5-------5------|
E|5-----------5------------------|
  get you out my  mind.

Bridge:
G|------- ------- ------- -------|------- ------- ------- -------|
D|-------------------------------|-------------------------------|
A|-------------------------------|--------7---7-----------7------|
E|--------7---7-----------7------|-------------------------------|
          If  you on      -       ly  knew
  ooooooooooooooooooooooooooooooooooooooooooooooooooooooo

G|------- ------- ------- -------|------- ------- ------- -------|
D|-------------------------------|-------------------------------|
A|-------------------------------|--------7---7-----------7------|
E|--------7---7-----------7------|-------------------------------|
          how my  poor    heart   yearns      for you,
  ooooooooooooooooooooooooooooooooooooooooooooooooooooooo

G|------- ------- ------- -------|------- ------- ------- -------|
D|--------7---7-----------7------|-------------------------------|
A|-------------------------------|--------5---5-----------5------|
E|-------------------------------|-------------------------------|
          Then,   dar- ling, you'll be
  ooooooooooooooooooooooooooooooooooooooooooooooooooooooo

G|------- ------- ------- -------|------- ------- ------- -------|
D|--------7---7-----------7------|-------------------------------|
A|-------------------------------|5------------------------------|
E|-------------------------------|-------------------------------|
          e - ver true    and     faithful    to  me.
  ooooooooooooooooooooooooooooooo
Verse:
G|------- ------- ------- -------|------- ------- ------- -------|
D|5-----------5------------------|6-----------6-----------4------|
A|----------------6-----------6--|----------------5--------------|
E|-------------------------------|-------------------------------|
          So      when    I'm     by      your side,


G|------- ------- 3------ ----3--|------- ------- ------- -------|
D|5-----------5------------------|------------------------4------|
A|-------------------------------|3---------------5--------------|
E|-------------------------------|-------------------------------|
          please remem -  ber     how I       cry


G|------- ------- ------- -------|------- ------- ------- -------|
D|5-----------5------------------|------------------------5------|
A|----------------5--------------|----------------7-----------7--|
E|------------------------7------|8-----------8------------------|
          For     your    love,
                                                 (for     your

G|------- ------- ------- -------|------- ------- ------- -------|
D|------------------------5------|5-----------5------------------|
A|4-----------4---7-----------7--|----------------5-------3------|
E|-------------------------------|-------------------------------|
          for     your    charms,
  love)

G|------- ------- ------- -------|------- ------- ------- -------|
D|----------------4-------7------|5-----------5------------------|
A|5-----------5------------------|-------------------------------|
E|-------------------------------|----------------7-----------7--|
                  Want you in my  arms,   in  my  arms,


G|------- ------- ------- -------|
D|-------------------------------|
A|----------------5-------5------|
E|5-----------5------------------|
  want you in my  arms.

Bridge:
G|------- ------- ------- -------|------- ------- ------- -------|
D|-------------------------------|-------------------------------|
A|-------------------------------|--------7---7-----------7------|
E|--------7---7-----------7------|-------------------------------|
          If  you on      -       ly  knew
  ooooooooooooooooooooooooooooooooooooooooooooooooooooooo

G|------- ------- ------- -------|------- ------- ------- -------|
D|-------------------------------|-------------------------------|
A|-------------------------------|--------7---7-----------7------|
E|--------7---7-----------7------|-------------------------------|
          how my  poor    heart   yearns      for you,
  ooooooooooooooooooooooooooooooooooooooooooooooooooooooo

G|------- ------- ------- -------|------- ------- ------- -------|
D|--------7---7-----------7------|-------------------------------|
A|-------------------------------|--------5---5-----------5------|
E|-------------------------------|-------------------------------|
          Then,   dar- ling, you'll be
  ooooooooooooooooooooooooooooooooooooooooooooooooooooooo

G|------- ------- ------- -------|------- ------- ------- -------|
D|--------7---7-----------7------|-------------------------------|
A|-------------------------------|5------------------------------|
E|-------------------------------|-------------------------------|
          e - ver true    and     faithful    to  me.
  ooooooooooooooooooooooooooooooo
Verse:
G|------- ------- ------- -------|------- ------- ------- -------|
D|5-----------5------------------|6-----------6-----------4------|
A|----------------6-----------6--|----------------5--------------|
E|-------------------------------|-------------------------------|
          So      when    I'm     by      your side,


G|------- ------- 3------ ----3--|------- ------- ------- -------|
D|5-----------5------------------|------------------------4------|
A|-------------------------------|3-----------3---5--------------|
E|-------------------------------|-------------------------------|
          please remem -  ber     how I       cry


G|------- ------- ------- -------|------- ------- ------- -------|
D|5-----------5------------------|------------------------5------|
A|----------------5--------------|----------------7-----------7--|
E|------------------------7------|8-----------8------------------|
          For     your    love,
                                                 (for     your

G|------- ------- ------- -------|------- ------- ------- -------|
D|------------------------5------|5-----------5------------------|
A|4---------------7-----------7--|----------------5-------3------|
E|-------------------------------|-------------------------------|
          for     your    charms,
  love)

G|------- ------- ------- -------|------- ------- ------- -------|
D|----------------4-------7------|5-----------5------------------|
A|5-----------5------------------|----------------5-----------5--|
E|-------------------------------|-------------------------------|
                  Want you in my  arms.
                                  ooooooooooooooooooooooooooooooo

G|------- ------- ------- -------|------- ------- ------- -------|
D|------------------------4------|5-----------5------------------|
A|3-----------3---5--------------|----------------5-----------5--|
E|-------------------------------|-------------------------------|
  oooooooooooooooo                ooooooooooooooooooooooooooooooo


G|------- ------- ------- -------|
D|------------------------4------|
A|3-----------3---5--------------|
E|-------------------------------|
  ooooooooooooooo

Outro:
G|------- ------- ------- -------|------- ------- ------- -------|
D|5-----------5------------------|------------------------4------|
A|----------------5-----------5--|3-----------3---5--------------|
E|-------------------------------|-------------------------------|
  oooooooooooooooooooooooooooooooooooooooooooooooo


G|------- ------- ------- -------|------- ------- ------- -------|
D|5-----------5------------------|5---------------5--------------|
A|----------------5-------5------|-------------------------------|
E|-------------------------------|-------------------------------|
  ooooooooooooooooooooooooooooooooo

Please e-mail me for any corrections, or write a comment.