Gerry And The Pacemakers - Ferry Cross The Mersey Text Guitar Tab

Learn song with the online tabulature player
Ferry Cross The Mersey
Gerry And The Pacemakers
Written by Gerry Marsden; released as a single with "You, You, You" in the UK 
and "Pretend" in the USA as B-sides.

Intro:
G|------- ------- ------- -------|------- ------- ------- -------|
D|-------------------------------|-------------------------------|
A|-------------------------------|-------------------------------|
E|-------------------------------|------------------------7------|
  (drums)


G|------- ----6-- ------- -------|------- ----6-- ------- -------|
D|----------------9--------------|----------------9--------------|
A|7------------------------------|7------------------------------|
E|------------------------7------|------------------------7------|



G|------- ----6-- ------- -------|------- ----6-- ------- -------|
D|----------------9--------------|----------------9--------------|
A|7------------------------------|7------------------------------|
E|------------------------7------|------------------------7------|


Verse:
G|------- ----6-- ------- -------|------- ----6-- ------- -------|
D|----------------9--------------|----------------9--------------|
A|7------------------------------|7------------------------------|
E|------------------------7------|------------------------7------|
  Life                                 goes  on   day     af- ter


G|------- ----6-- ------- -------|------- ----6-- ------- -------|
D|----------------9--------------|----------------9--------------|
A|7------------------------------|7------------------------------|
E|------------------------7------|------------------------7------|
  day,


G|------- ----6-- ------- -------|------- ----6-- ------- -------|
D|----------------9--------------|----------------9--------------|
A|7------------------------------|7------------------------------|
E|------------------------7------|------------------------7------|
  Hearts                               torn  in   eve    -    ry


G|------- ----6-- ------- -------|------- ----6-- ------- -------|
D|----------------9--------------|----------------9--------------|
A|7------------------------------|7------------------------------|
E|------------------------7------|------------------------7------|
  way.                                                    So


G|------- ------- ------- -------|------- ------- ------- -------|
D|------------------------4---5--|6-----------6-----------6-\-5--|
A|7-----------7-------7----------|----------------6--------------|
E|----------------7--------------|-------------------------------|
  fer  -  ry,             cross   Mer  -  sey,           'Cause this
                              the

G|------- ------- ------- -------|------- ------- ------- -------|
D|4-----------------------4------|-------------------------------|
A|----------------4--------------|----------------9--------------|
E|-------------------------------|7-----------------------7------|
  land's              the place I   love,             and here I'll


G|------- ----6-- ------- -------|------- ----6-- ------- -------|
D|----------------9--------------|----------------9--------------|
A|7------------------------------|7------------------------------|
E|------------------------7------|------------------------7------|
    stay.

Verse:
G|------- ----6-- ------- -------|------- ----6-- ------- -------|
D|----------------9--------------|----------------9--------------|
A|7------------------------------|7------------------------------|
E|------------------------7------|------------------------7------|
  Peo               -                  ple,  they rush        every-


G|------- ----6-- ------- -------|------- ----6-- ------- -------|
D|----------------9--------------|----------------9--------------|
A|7------------------------------|7------------------------------|
E|------------------------7------|------------------------7------|
  where,


G|------- ----6-- ------- -------|------- ----6-- ------- -------|
D|----------------9--------------|----------------9--------------|
A|7------------------------------|7------------------------------|
E|------------------------7------|------------------------7------|
  Each                                with  their own         secret


G|------- ----6-- ------- -------|------- ----6-- ------- -------|
D|----------------9--------------|----------------9--------------|
A|7------------------------------|7------------------------------|
E|------------------------7------|------------------------7------|
  care.                                                   So


G|------- ------- ------- -------|------- ------- ------- -------|
D|-------------------------------|6-----------6-----------6---5--|
A|7-----------7-----------7---9--|----------------6--------------|
E|----------------7---7----------|-------------------------------|
  fer  -  ry,             cross   Mer  -  sey,               And
                              the

G|------- ------- ------- -------|4------ ----4-- ------- 4------|
D|4-----------------------4------|----------------4--------------|
A|----------------4--------------|-------------------------------|
E|-------------------------------|-------------------------------|
  al         -        ways take me there,             the place I


G|------- ----6-- ------- -------|------- ------- ------- -------|
D|----------------9--------------|-------------------------------|
A|7------------------------------|7-----------7-----------7---8--|
E|------------------------7------|----------------7---7----------|
  love.

Bridge:
G|------- ------- ------- -------|------- ------- ------- -------|
D|----------------9-------9---9--|-------------------------------|
A|9-----------9------------------|7-----------7-----------7---8--|
E|-------------------------------|----------------7---7----------|
  People      a - round   every   cor  -  ner,


G|------- ------- ------- -------|------- ------- ------- -------|
D|----------------9-------9---9--|-------------------------------|
A|9-------9---9------------------|7-----------7-----------7---8--|
E|-------------------------------|----------------7--------------|
      they seem to smile  and     say:


G|------- ------- ------- -------|------- ------- ------- -------|
D|----------------9-------7---7--|6-----------6-----------6------|
A|9-----------9------------------|----------------6--------------|
E|-------------------------------|-------------------------------|
      "We   don't care what  your name    is,     boy,


G|------- ------- ------- -------|------- ------- ------- -------|
D|-------------------------------|9---9---7---7---6---6----------|
A|9-----------9-----------9------|------------------------9---9--|
E|----------------9--------------|-------------------------------|
  we'll ne - ver  turn you   a -  way."

Verse:
G|------- ----6-- ------- -------|------- ----6-- ------- -------|
D|----------------9--------------|----------------9--------------|
A|7------------------------------|7------------------------------|
E|------------------------7------|------------------------7------|
  So                                   I'll  con- tinue       to


G|------- ----6-- ------- -------|------- ----6-- ------- -------|
D|----------------9--------------|----------------9--------------|
A|7------------------------------|7------------------------------|
E|------------------------7------|------------------------7------|
  say:


G|------- ----6-- ------- -------|------- ----6-- ------- -------|
D|----------------9--------------|----------------9--------------|
A|7------------------------------|7------------------------------|
E|------------------------7------|------------------------7------|
  Here                                I           al - ways  will


G|------- ----6-- ------- -------|------- ----6-- ------- -------|
D|----------------9--------------|----------------9--------------|
A|7------------------------------|7------------------------------|
E|------------------------7------|------------------------7------|
  stay.                                                   So


G|------- ------- ------- -------|------- ------- ------- -------|
D|------------------------4---5--|6-----------6-----------6---5--|
A|7-----------7-------7----------|----------------6--------------|
E|----------------7--------------|-------------------------------|
  fer  -  ry,             cross   Mer  -  sey,           'Cause this
                              the

G|------- ------- ------- -------|4------ ----4-- ------- 4------|
D|4-----------------------4------|----------------4--------------|
A|----------------4--------------|-------------------------------|
E|-------------------------------|-------------------------------|
  land's              the place I   love,             and here I'll


G|------- ----6-- ------- -------|------- ----6-- ------- -------|
D|----------------9--------------|----------------9--------------|
A|7------------------------------|7------------------------------|
E|------------------------7------|------------------------7------|
    stay,                                     And here    I'll

Outro:
G|------- ----6-- ------- -------|------- ----6-- ------- -------|
D|----------------9--------------|----------------9--------------|
A|7------------------------------|7------------------------------|
E|------------------------7------|------------------------7------|
  stay,                                           here    I'll


G|------- ----6-- ------- -------|------- ----6-- ------- -------|
D|----------------9--------------|----------------9--------------|
A|7------------------------------|7------------------------------|
E|------------------------7------|------------------------7------|
  stay.


G|------- ------- ------- -------|------- ------- ------- -------|
D|-------------------------------|-------------------------------|
A|7------------------------------|-------------------------------|
E|-------------------------------|-------------------------------|


Please e-mail me for any corrections, or write a comment.