Gerry And The Pacemakers - How Do You Do It Text Guitar Tab

Learn song with the online tabulature player
How Do You Do It?
Gerry and the Pacemakers
Written by Mitch Murray; released as a single with "Away From You" as the 
B-side.

Intro:
G|------- 6------ ------- -------|------- ------- ------- -------|
D|7-----------7-----------7------|-------------------------------|
A|----------------9-----------9--|--------9---6---7--------------|
E|-------------------------------|7-----------------------7------|



G|------- ------- ------- -------|------- ------- ------- -------|
D|7------------------------------|7-------5-------5-------6------|
A|--------5---------------5---5--|-------------------------------|
E|-------------------------------|-------------------------------|


Verse:
G|------- 6------ ------- -------|------- ------- ------- -------|
D|7-----------7-----------7------|------------------------9---6--|
A|----------------9-----------9--|--------9---6---7--------------|
E|-------------------------------|7------------------------------|
  How             do          you do      what you do to  me,


G|------- 6------ ------- -------|------- ------- ------- -------|
D|7-----------7-----------7------|------------------------9---6--|
A|----------------9-----------9--|--------9---6---7--------------|
E|-------------------------------|7------------------------------|
          I       wish I      knew,                       If  I


G|------- 6------ ------- -------|------- ------- ------- -------|
D|7-----------7-----------7------|------------------------9---6--|
A|----------------9-----------9--|--------9---6---7--------------|
E|-------------------------------|7------------------------------|
  knew    how you do  it  to  me,             I'd do  it  to


G|------- ------- ------- -------|------- ------- ------- -------|
D|7------------------------------|7-------5-------5-------6------|
A|--------5---------------5---5--|-------------------------------|
E|-------------------------------|-------------------------------|
  you.

Verse:
G|------- 6------ ------- -------|------- ------- ------- -------|
D|7-----------7-----------7------|------------------------9---6--|
A|----------------9-----------9--|--------9---6---7--------------|
E|-------------------------------|7------------------------------|
  How             do          you do      what you do to  me,


G|------- 6------ ------- -------|------- ------- ------- -------|
D|7-----------7-----------7------|------------------------9---6--|
A|----------------9-----------9--|--------9---6---7--------------|
E|-------------------------------|7------------------------------|
          I'm         feeling     blue,                   Wish I


G|------- 6------ ------- -------|------- ------- ------- -------|
D|7-----------7-----------7------|------------------------9---6--|
A|----------------9-----------9--|--------9---6---7--------------|
E|-------------------------------|7------------------------------|
  knew    how you do  it  to  me,         but I   haven't a


G|------- ------- ------- -------|------- ------- ------- -------|
D|7------------------------------|7-------5---7-------5---7------|
A|--------5---------------5---5--|-------------------------------|
E|-------------------------------|-------------------------------|
  clue.                                                       You

Bridge:
G|------- ------- ------- -------|------- ------- ------- -------|
D|------------------------6------|7------------------------------|
A|--------5-------7--------------|--------7-------9--------------|
E|7------------------------------|------------------------9------|
  give    me  a   feeling in  my  heart                   like an


G|------- ------- ------- -------|------- ------- ------- -------|
D|------------------------6---6--|7-------5---7-------5---7------|
A|--------5-------7--------------|-------------------------------|
E|7------------------------------|-------------------------------|
  arrow                   passing through it.                 Sup-


G|------- ------- ------- -------|------- ------- ------- -------|
D|------------------------6------|7------------------------------|
A|--------5-------7--------------|--------7-------9--------------|
E|7------------------------------|------------------------9------|
  pose    that you think  ve- ry  smart,                      but
                      you're

G|------- ------- ------- -------|------- ------- ------- -------|
D|-------------------------------|--------6-------9-------6---9--|
A|--------6-------9-------6---9--|7------------------------------|
E|7------------------------------|-------------------------------|
  won't   you     tell    me      how     do  you do      it?


G|------- ------- ------- -------|------- ------- ------- -------|
D|-------------------------------|-------------------------------|
A|-------------------------------|7-------5---7-------5---7------|
E|7-------7---7-------7---7---7--|-------------------------------|


Verse:
G|------- 6------ ------- -------|------- ------- ------- -------|
D|7-----------7-----------7------|------------------------9---6--|
A|----------------9-----------9--|--------9---6---7--------------|
E|-------------------------------|7------------------------------|
  How             do          you do      what you do to  me,


G|------- 6------ ------- -------|------- ------- ------- -------|
D|7-----------7-----------7------|------------------------9---6--|
A|----------------9---9-------9--|--------9---6---7--------------|
E|-------------------------------|7------------------------------|
          if  I       on  -   ly  knew,                   Then per-


G|------- 6------ ------- -------|------- ------- ------- -------|
D|7-----------7-----------7------|------------------------9---6--|
A|----------------9-----------9--|--------9---6---7--------------|
E|-------------------------------|7------------------------------|
  haps    you'd       fall    for me  like    I       fell    for


G|------- ------- ------- -------|------- ------- ------- -------|
D|7------------------------------|7------------------------------|
A|--------5---------------5---5--|----7---7---7---7---7---7---7--|
E|-------------------------------|-------------------------------|
  you.

Verse (solo):
G|------- 6------ ------- -------|------- ------- ------- -------|
D|7-----------7-----------7------|------------------------9---6--|
A|----------------9-----------9--|--------9---6---7--------------|
E|-------------------------------|7------------------------------|



G|------- 6------ ------- -------|------- ------- ------- -------|
D|7-----------7-----------7------|------------------------9---6--|
A|----------------9-----------9--|--------9---6---7--------------|
E|-------------------------------|7------------------------------|



G|------- 6------ ------- -------|------- ------- ------- -------|
D|7-----------7-----------7------|------------------------9---6--|
A|----------------9-----------9--|--------9---6---7--------------|
E|-------------------------------|7------------------------------|



G|------- ------- ------- -------|------- ------- ------- -------|
D|7------------------------------|7-------5---7-------5---7------|
A|--------5---------------5---5--|-------------------------------|
E|-------------------------------|-------------------------------|
                                                              You

Bridge:
G|------- ------- ------- -------|------- ------- ------- -------|
D|------------------------6------|7------------------------------|
A|--------5-------7--------------|--------7-------9--------------|
E|7------------------------------|------------------------9------|
  give    me  a   feeling in  my  heart                   like an


G|------- ------- ------- -------|------- ------- ------- -------|
D|------------------------6---6--|7-------5---7-------5---7------|
A|--------5-------7--------------|-------------------------------|
E|7------------------------------|-------------------------------|
  arrow                   passing through it.                 Sup-


G|------- ------- ------- -------|------- ------- ------- -------|
D|------------------------6------|7------------------------------|
A|--------5-------7--------------|--------7-------9--------------|
E|7------------------------------|------------------------9------|
  pose    that you think  ve- ry  smart,                      but
                      you're

G|------- ------- ------- -------|------- ------- ------- -------|
D|-------------------------------|--------6-------9-------6---9--|
A|--------6-------9-------6---9--|7------------------------------|
E|7------------------------------|-------------------------------|
  won't   you     tell    me      how     do  you do      it?


G|------- ------- ------- -------|------- ------- ------- -------|
D|-------------------------------|-------------------------------|
A|-------------------------------|7-------5---7-------5---7------|
E|7---7---7---7---7---7---7---7--|-------------------------------|


Verse:
G|------- 6------ ------- -------|------- ------- ------- -------|
D|7-----------7-----------7------|------------------------9---6--|
A|----------------9-----------9--|--------9---6---7--------------|
E|-------------------------------|7------------------------------|
  How             do          you do      what you do to  me,


G|------- 6------ ------- -------|------- ------- ------- -------|
D|7-----------7-----------7------|------------------------9---6--|
A|----------------9-----------9--|--------9---6---7--------------|
E|-------------------------------|7------------------------------|
          if  I       on  -   ly  knew,                   Then per-


G|------- 6------ ------- -------|------- ------- ------- -------|
D|7-----------7-----------7------|------------------------9---6--|
A|----------------9-----------9--|--------9---6---7--------------|
E|-------------------------------|7------------------------------|
  haps    you'd       fall    for me  like    I       fell    for


G|------- ------- ------- -------|------- ------- ------- -------|
D|-------------------------------|-------------------------------|
A|9-----------9------------------|----------------7-------7------|
E|----------------9-----------9--|7-------7----------------------|
  you,                                    when I  do  it  to


G|------- ------- ------- -------|------- ------- ------- -------|
D|7------------------------------|7-------5---7-------5---7------|
A|--------5---------------5---5--|-------------------------------|
E|-------------------------------|-------------------------------|
  you.

Please e-mail me for any corrections, or write a comment.