Gerry And The Pacemakers - Im The One Text Guitar Tab

Learn song with the online tabulature player
Im The One
Song written by Gerry Marsden, recorded by him and his band
The Pacemakers, released in Jan 1964 reaching number 2 in UK.
Original bassist Les Chadwick.  Tab by bass50611.
Straight forward, bit quick in places, not exactly as original
In the bridge but very close. Any comments its bass254@btinternet.com

Intro:                  .
G|--- --------|-----------|
D|-- NO BASS--|-------7-9-|
A|-FIRST RIFF-|--7-10-----|
E|---- -------|-----------|

Verse:
G|-------------------------------------------------------------------|
D|---9-10-11----------------9-10-11----------------6-9----6-9----6-9-|
A|-7---------11-9-------6-7---------11-9-------6-7------7-------7----|
E|----------------9-7-9------------------9-7-9-----------------------|
                              .
G|----------------------------------------------|
D|---6-9--------------------------------7-9-7-9-|
A|-7--------4-7----4-7----4-7------7-10---------|
E|--------5------5------5-----5-----------------|

Repeat Verse:

Bridge: (PLAY THIS A BIT QUICK)
G|------------------------------------------------------------|
D|---------------------8-------------4-7-4--------------------|
A|--4-7-----6-9----8-11--11-8-----4-7-----7----6-9-6---6-9----|
E|-5----6-7-----8-9----------9-7-5----------6-7-------7-----8-|

G|-----------------------------------------------------------------|
D|------8-------------4--------------------------------------------|
A|--8-11--11-8-----4-7--7-4--------1-4-1----1-2-1---6-9-6--------5-|
E|-9----------9-7-5---------5-4---2-------2--------7--------77-9---|

Repeat Verse:

Repeat Bridge:

Repeat Verse:

Outro:             .
G|-------------------|
D|------7-9-7--------|
A|-7-10-------10---7-|
E|-------------------|