Get Cape. Wear Cape. Fly. - A Song Text Guitar Tab

Learn song with the online tabulature player
e||---------3-3---3----|------3-3---3----|------7--7------5-3-5------3-3---3-||
B||----------3---3-----|-------3---3-----|----------------------------3---3--||
G||-------0------------|-----0-----------|-----0--0-----0----------0---------||x2  
D||--------------------|-----------------|-----------------------------------||
A||--------------------|---3-------------|---7--------5----------3-----------||
E||-----3--------------|-----------------|-----------------------------------||


The little solo played in over the second bar during the second time:


e||--------------------|-------------0h2h3-3/5-5/7--|
B||--------------------|-------------0h2h3-3/5-5/7--|
G||--------------------|----------------------------|  
D||--------------------|----------------------------|
A||--------------------|----------------------------|
E||--------------------|----------------------------|