Get Set Go - Die Motherfucker Die Text Guitar Tab

Learn song with the online tabulature player
intro:

|---11--11--11---11--11--11--11--11--11--11--11------|
|-12--12--12---11--11--11---10--10---9--9--9---------|
|----------------------------------------------------|
|----------------------------------------------------|
|----------------------------------------------------|
|----------------------------------------------------|


|---12--12--12---9--9--9---11--11--11-11-12-14-12-11-|
|-14--14--14---11-11-11--12--12--12------------------|
|----------------------------------------------------|
|----------------------------------------------------|
|----------------------------------------------------|
|----------------------------------------------------|


verse:
|------------22222222222-----------------------------|
|-4444444444-22222222222-----------------------------|
|-4444444444-44444444444--111111111--4444444---------|    x2
|-4444444444-33333333333--222222222--4444444---------|
|-2222222222-44444444444--222222222--2222222---------|
|------------22222222222-----------------------------|
.....PM.............PM.........PM..........PM........


chorus:
|------------22222222222-----------------------------|
|-4444444444-22222222222-----------------------------|
|-4444444444-44444444444--111111111--4444444---------|    x2
|-4444444444-33333333333--222222222--4444444---------|
|-2222222222-44444444444--222222222--2222222---------|
|------------22222222222-----------------------------|


|----------------------------------------------------|
|----------------------------------------------------|
|-66666666-8888888-9~~~------------------------------|
|-66666666-8888888-9~~~------------------------------|
|-44444444-6666666-7~~~------------------------------|
|----------------------------------------------------|


thats pretty much it! enjoy!