Gian Magdangal - Himala Text Guitar Tab

Learn song with the online tabulature player
Title: Himala
Artist: Gian Magdangal
Tabbed by: Rolando Orteza (hamtarolando2@yahoo.com)

diz song's for everyone...asking 4 a miracle..wOOOo0h...!

Chords used:

F#m: 244222
G  : 355433
D  : 000232
D9 : 000320

E2 gumawa ako ng intro:

        F#m                        G
E|-2-----2---------------|-3-----3--------------|
B|-2--------2-----2------|-3--------3-----3-----|
G|-2--2--------2---------|-4--4--------3--------|
D|-4---------------------|-5--------------------|
A|-4---------------------|-5--------------------|
E|-2---------------------|-3--------------------|

          D                       D9                                   
E|-2-----2--------2------|-0-----0--------------|
B|-3--------3------------|-2--------2-----2-----|
G|-2--2--------2---------|-3--3--------3--------|
D|-0---------------------|-0--------------------|
A|-0---------------------|-0--------------------|
E|-0---------------------|-0--------------------|

-----jaz get d proper strumming from here------ ^^

Verse 1:

F#m          G
Pangarap ko'y makita kang
   D               D9
Naglalaro sa buwan
  F#m         G
Inalay mo sa akin
    D                       D9
Ang gabing walang hangganan
  F#m             G         D     D9
Hindi mahanap sa lupa ang pag-asa
  F#m         G
Nakikiusap na lang

Chorus:
     D
Himala
 G              F#m
Kasalanang bang humingi ako sa langit
    G       D
Ng isang himala
 G              F#m
Kasalanang bang humingi ako sa langit
    G       D
Ng isang himala

Verse 2:

  F#m          G
Pangarap ko'y makita
      D              D9 
Ang liwanag ng umaga
   F#m          G         D   D9
Naglalaming sa iyong mga mata
  F#m            G         D     D9
Di mahagilap sa lupa ang pag-asa
  F#m          G
Nakikiusap sa buwan

---Repeat chorus---

Adlib: --------

Chorus 2:

     D
Himala
 G              F#m
Kasalanang bang humingi ako sa langit
    G       D
Ng isang himala
 G              F#m
Kasalanang bang humingi ako sa langit
    G       D     D9    G         D  D9 G
Ng isang himalaaaaaaaa haaaaaaa aaaahhh
  F#m                    G      D9
Humingi ako sa langit ng isang himala