Gilles Vigneault - Gens Du Pays Text Guitar Tab

Learn song with the online tabulature player
Gens du pays
Gilles vigneault

J'ai marqué solo parce que je ne pouvais pas marqué refrain, alors voici la jolie 
du refrain de gens du pays.

e---------------0-----0---------------|
b-0-----3-0---------0---3--3-3--3-3---|
g---2-0-----2-0---0-------------------|
d-------------------------------------|
a-------------------------------------|
e-------------------------------------|


e---------------0-----0---------------|
b-0-----3-0---------0---3---0---------|
g---2-0-----2-0---0-------0---2--0----|
d-------------------------------------|
a-------------------------------------|
e-------------------------------------|


:P on t'aime vigneault