Gillian Welch - Down Along The Dixie Line Text Guitar Tab

Learn song with the online tabulature player
Down Along the Dixie Line ~ Gillian Welch
from the album "The Harrow & the Harvest"

Here's a stab at Dave Rawlings' lead work (as heard on the album):

Capo II

Intro:
E|-------------------------------------------|
B|-------------------------------------------|
G|---------------7---------------------------|
D|---------5-7/9-----5/7-5-5-7-7/9---9\7-5---|
A|-----5-----------------------------------5-|
e|-5/7---------------------------------------|

E|-------------------------------------------|
B|-------------------------------------------|
G|-----------------7-----------------------7-|
D|-------5---5-7/9---9---9\7-5-7---5-7-5-----|
A|-----5-------------------------7-----------|
e|-5/7---------------------------------------|

E|-------------------------------------------|
B|-------------------------------------------|
G|-7/9-7/9---\4-4-4-4p2-0---------0---0-2-0--|
D|--------------------------0h1h2------------|
A|-------------------------------------------|
e|-------------------------------------------|

E|---------------------------|
B|-1/3\1-1-0-0-1-0-----------|
G|-2/4\2-2-0-0-2-0---0-------|
D|---------------------2-0---|
A|-------------------------2-|
e|---------------------------|

For the verses/choruses, just play around with the scale from the intro.

Solo:
E|----------------------------------------------------------------------|
B|-----3-----3h5p3h5p3---(5)-8-8-10p8-10/12---8-------------------------|
G|-2/4------------------------------------------7-------0h2-0-----0-----|
D|-------5----------------------------------------9p7-5-------2/5---0---|
A|--------------------------------------------------------------------2-|
e|----------------------------------------------------------------------|

E|-----------------------------------------------|
B|-------------------------1p0-1p0-------3-5p3---|
G|-----------0-------0-2p0---------2-4-5-------4-|
D|-----0-0h2-----0-2-----------------------------|
A|-2/3-------------------------------------------|
e|-----------------------------------------------|

E|-----------------------------------------|
B|-------------------------3-------3-------|
G|-0-2/4-2/4-2/4-4p0-0-0-4---4-0-4---4-----|
D|-------------------------------------5-5-|
A|-----------------------------------------|
e|-----------------------------------------|

E|-------------------------------------------7-10-7---|
B|---------------------------------7-8-7-5-7--------8-|
G|---------------------------4-5-6-6------------------|
D|-----0-0h2-0-2-0h3-0-3-0-5--------------------------|
A|-0h2------------------------------------------------|
e|----------------------------------------------------|

Outro:
E|----------------------------3-3-3-|
B|----------------------------0-1-0-|
G|----------------------------0-0-0-|
D|-----0---0-2----------------0-0-0-|
A|-0h2---3--------------------2-2-2-|
e|----------------------------3-3-3-|