Gillian Welch - Time The Revelator Text Guitar Tab

Learn song with the online tabulature player
Song tabbed by: Patrick Mc Loughlin.

Normal tuning.
Kapo on the 4th fret

The following is the 1st verse,each verse that follows is the same.
In order to get the timing right you should practice to the song.

Darling

/-----3-----|
/-----3-----|
/-----------|
/-----2-----|
/-----2-----|
/-----------|

remember

/-----3-----|
/-----3-----|
/-----------|
/-----2-----|
/-----3-----|
/-----------|

from when you

/-----3-----|
/-----3-----|
/-----2-----|
/-----2-----|
/-----------|
/-----------|


come to me

/-----3-----|
/-----3-----|
/-----------|
/-----2-----|
/-----3-----|
/-----------|

that I’m the

/-----3-----|
/-----3-----|
/-----------|
/-----2-----|
/-----2-----|
/-----------|

pretender

/-----3-----|
/-----3-----|
/-----------|
/-----2-----|
/-----3-----|
/-----------|

I’m not what I’m

/-----3-----|
/-----3-----|
/-----2-----|
/-----2-----|
/-----------|
/-----------|

supposed to be

/-----3-----|
/-----3-----|
/-----------|
/-----2-----|
/-----3-----|
/-----------|

but who could
/-----------|
/-----1-----|
/-----2-----|
/-----2-----|
/-----------|
/-----------|

know, lf I’m a

/----------|
/----1-----|
/----------|
/----2-----|
/----3-----|
/----------|

traitor?

/----------|
/----1-----|
/----------|
/----------|
/----2-----|
/----3-----|

times the

/----------|
/----1-----|
/----------|
/----------|
/----------|
/----2-----|

revelator

/-----3-----|
/-----3-----|
/-----2-----|
/-----2-----|
/-----------|
/-----------|

the

/-----3-----|
/-----3-----|
/-----------|
/-----2-----|
/-----3-----|
/-----------|

revelat(----

/-----3-----|
/-----3-----|
/-----2-----|
/-----2-----|
/-----------|
/-----------|

or)

/-----3-----|
/-----3-----|
/-----------|
/-----2-----|
/-----3-----|
/-----------|