Gino Vannelli - Appaloosa Text Guitar Tab

Learn song with the online tabulature player
E|--------------------------------------|
B|-10-8---------------------6-8-10-8----|
G|------10-7v------7-----------------9v-|
D|------------7-10---10-7---------------|
A|-----------------------10-------------|
E|--------------------------------------|

E|-----------------------------8r--------/10-|
B|-------------8----8-10--8-10----10-8-------|
G|----7-9--7-9---10--------------------10----|
D|-10----------------------------------------|
A|-------------------------------------------|
E|-------------------------------------------|