Gipsy Kings - Baila Me Text Guitar Tab

Learn song with the online tabulature player
i think this intro to the song sounds better than the one already on the site, but
the rest of the song is still the same


intro: Capo on 3rd fret

E-----------------------|  
B-----------------------|
G-----------------------|
D----------------2-1----|
A-2------------2-----2--|
E---4--0---0-4---------4|

Repeat 3x


E-----------------------|
B-----------------------|
G-----------------------|
D----------------2------|
A-2------------2--------|
E----4-0---0-4-----0----|