Gish - Panalangin Text Guitar Tab

Learn song with the online tabulature player
song		: Panalangin
Band/Aritst	: Gish
Transcribed by	: Jerraldinho

E-mail add	: jrld_mancao@yahoo.com

                 



Tuning: E A D G B e

Gtr.Legends:

b - bend
s - slide
x - DEAD STRING

>Intro<

Guitar 1(lead)


e|---------8b-------5b----------------------------|
B|-4s6-6-6------------------------------5-7-8-7-5-|
G|-----------5s7-7-7--------4-5-7--5-7------------|
D|---------------------5-7------------------------|
A|------------------------------------------------|
E|------------------------------------------------|


e|---------8b-------5b-----------------|
B|-4s6-6-6-----------------------------|
G|-----------5s7-7-7---------7-6-5--3--|
D|---------------------5-5-5---------3-|
A|-------------------------------------|
E|-------------------------------------|

Guitar 2
    Fm		D	G	   C
e|-x-x-x-x---x-x-x-x---x-x-x-x---x-x-x-x-----|
B|-x-x-x-x---x-x-x-x---x-x-x-x---x-x-x-x-----|
G|-x-x-x-x---7-7-7-7---x-x-x-x---5-5-5-5-----|
D|-3-3-3-3---7-7-7-7---5-5-5-5---5-5-5-5-----|
A|-3-3-3-3---5-5-5-5---5-5-5-5---3-3-3-3-----|
E|-1-1-1-1-------------3-3-3-3---------------|

     Fm          D       G    D  C# C  Bb
e|-x-x-x-x---x-x-x-x--x-x-x--x--x--x--x-----|
B|-x-x-x-x---x-x-x-x--x-x-x--x--x--x--x-----|
G|-x-x-x-x---7-7-7-7--x-x-x--7--6--5--3-----|
D|-3-3-3-3---7-7-7-7--5-5-5--7--6--5--3-----|
A|-3-3-3-3---5-5-5-5--5-5-5--5--4--3--1-----|
E|-1-1-1-1------------3-3-3-----------------|


>Verse 1< (lead)

e|-----1-------5---------5---------5-|
B|-----1-------5---------5---------5-|
G|-----1-------7---------5---------7-|
D|-----3-----7-----------7-------7---|
A|---3----5------------7-------5-----|
E|-1-----------------5---------------|

   pana..langin ko sa habang buhay

                                     (strum)

e|-------x-x-x-------------x-x-x-----x-x-x------x-x-x--|
B|-------x-x-x-------------x-x-x-----x-x-x------x-x-x--|
G|-------x-x-x-------------x-x-x-----x-x-x------5-5-5--|
D|-------5-5-5-------------7-7-7-----8-8-8------5-5-5--|
A|-------5-5-3-------------7-7-7-----8-8-8------3-3-3--|
E|-------3-3-3-------------5-5-5-----6-6-6-------------|

makapiling ka.. makasama ka  yan ang panalangin ko..

>verse2< (lead)

e|-----1-------5---------5---------5-|
B|-----1-------5---------5---------5-|
G|-----1-------7---------5---------7-|
D|-----3-----7-----------7-------7---|
A|---3----5------------7-------5-----|
E|-1-----------------5---------------|

at hindi papayag ang pusong ito

               (break)         (break)
e|-------x-x-x-------------x-x-x-----x-x-x------x-x-x--|
B|-------x-x-x-------------x-x-x-----x-x-x------x-x-x--|
G|-------x-x-x-------------x-x-x-----x-x-x------5-5-5--|
D|-------5-5-5-------------7-7-7-----8-8-8------5-5-5--|
A|-------5-5-3-------------7-7-7-----8-8-8------3-3-3--|
E|-------3-3-3-------------5-5-5-----6-6-6-------------|

mawala ka...  sa aking piling.. mahal ko iyong dinggin..


>chorus<
                                                                 (break)
e|---x-x-x-x-x--------x-x-x-x-x-x-x--x-x-x----------x-x-x-------x-----|
B|---x-x-x-x-x--------x-x-x-x-x-x-x--x-x-x----------x-x-x-------x-----|
G|---7-7-7-7-7--------x-x-x-7-7-7-7--x-x-x----------x-x-x-------x-----|
D|---7-7-7-7-7--------7-7-7-7-7-7-7--5-5-5----------7-7-7-------8-----|
A|---5-5-5-5-5--------7-7-7-5-5-5-5--5-5-5----------7-7-7-------8-----|
E|--------------------5-5-5----------3-3-3----------5-5-5-------6-----|

   wala nang iba pang mashalaga   sa tamis na dulot ng pag-ibig

e|------------x-x-x----|
B|------------x-x-x----|
G|------------5-5-5----|
D|------------5-5-5----|
A|------------3-3-3----|
E|---------------------|

nating dalawa..

e|---x-x-x-x-x--------x-x-x-x-x-x-x--x-x-x----------x-x-x--|
B|---x-x-x-x-x--------x-x-x-x-x-x-x--x-x-x----------x-x-x--|
G|---7-7-7-7-7--------x-x-x-7-7-7-7--x-x-x----------x-x-x--|
D|---7-7-7-7-7--------7-7-7-7-7-7-7--5-5-5----------7-7-7--|
A|---5-5-5-5-5--------7-7-7-5-5-5-5--5-5-5----------7-7-7--|
E|--------------------5-5-5----------3-3-3----------5-5-5--|

  at sana na man.. makikinig ka kapag aking    sasabihin..

e|--x-x-x----x-x-x--|
B|--x-x-x----x-x-x--|
G|--x-x-x----5-5-5--|
D|--8-8-8----5-5-5--|
A|--8-8-8----3-3-3--|
E|--6-6-6-----------|

 minamahal kita..

 >repeat intro<
 >repeat verse 1<
 >repeat verse 2<


>chorus<
                                                                 (break)
e|---x-x-x-x-x--------x-x-x-x-x-x-x--x-x-x----------x-x-x-------x-----|
B|---x-x-x-x-x--------x-x-x-x-x-x-x--x-x-x----------x-x-x-------x-----|
G|---7-7-7-7-7--------x-x-x-7-7-7-7--x-x-x----------x-x-x-------x-----|
D|---7-7-7-7-7--------7-7-7-7-7-7-7--5-5-5----------7-7-7-------8-----|
A|---5-5-5-5-5--------7-7-7-5-5-5-5--5-5-5----------7-7-7-------8-----|
E|--------------------5-5-5----------3-3-3----------5-5-5-------6-----|

   wala nang iba pang mashalaga   sa tamis na dulot ng pag-ibig

e|------------x-x-x----|
B|------------x-x-x----|
G|------------5-5-5----|
D|------------5-5-5----|
A|------------3-3-3----|
E|---------------------|

nating dalawa..

e|---x-x-x-x-x--------x-x-x-x-x-x-x--x-x-x----------x-x-x--|
B|---x-x-x-x-x--------x-x-x-x-x-x-x--x-x-x----------x-x-x--|
G|---7-7-7-7-7--------x-x-x-7-7-7-7--x-x-x----------x-x-x--|
D|---7-7-7-7-7--------7-7-7-7-7-7-7--5-5-5----------7-7-7--|
A|---5-5-5-5-5--------7-7-7-5-5-5-5--5-5-5----------7-7-7--|
E|--------------------5-5-5----------3-3-3----------5-5-5--|

  at sana na man.. makikinig ka pagkat aking    sasabihin..

e|--x-x-x----x-x-x--x-x-x-|
B|--x-x-x----x-x-x--x-x-x-|
G|--x-x-x----5-5-5--6-6-6-| (hold)
D|--8-8-8----5-5-5--6-6-6-|
A|--8-8-8----3-3-3--4-4-4-|
E|--6-6-6-----------------|

 minamahal kita..

>adlib<

Guitar1(lead)

 2:19
e|------------8-----------------8b------------------------------8b--------|
B|-------8h10---8s10-8h10---8s10--8h10-----------8-8h10---8s10b---8h10----|
G|-7-7h10----------------10b----------10b-7-7-10-------10b------------10b-|
D|------------------------------------------------------------------------|
A|------------------------------------------------------------------------|
E|------------------------------------------------------------------------|

Guitar2
e|-x-x-x-x-x-x-x-x-x-x-x-x-x-x-x-x--|
B|-x-x-x-x-x-x-x-x-x-x-x-x-x-x-x-x--|
G|-x-x-x-x-7-7-7-7-x-x-x-x-5-5-5-5--| 2x
D|-3-3-3-3-7-7-7-7-5-5-5-5-5-5-5-5--|
A|-3-3-3-3-5-5-5-5-5-5-5-5-3-3-3-3--|
E|-1-1-1-1---------3-3-3-3----------|


>Verse 1< (pluck)

e|-----1-------5---------5---------5-|
B|-----1-------5---------5---------5-|
G|-----1-------7---------5---------7-|
D|-----3-----7-----------7-------7---|
A|---3----5------------7-------5-----|
E|-1-----------------5---------------|

   pana..langin ko sa habang buhay

    (down stroke)

e|-------x-x-x-------------x-x-x-----x-x-x------x-x-x--|
B|-------x-x-x-------------x-x-x-----x-x-x------x-x-x--|
G|-------x-x-x-------------x-x-x-----x-x-x------5-5-5--|
D|-------5-5-5-------------7-7-7-----8-8-8------5-5-5--|
A|-------5-5-3-------------7-7-7-----8-8-8------3-3-3--|
E|-------3-3-3-------------5-5-5-----6-6-6-------------|

makapiling ka.. makasama ka  yan ang panalangin ko..

>verse2<

e|-x-x-x---x-x-x-----x-x-x---x-x-x---|
B|-x-x-x---x-x-x-----x-x-x---x-x-x---|
G|-x-x-x---7-7-7-----x-x-x---7-7-7---|
D|-3-3-3---7-7-7-----7-7-7---7-7-7---|
A|-3-3-3---5-5-5-----7-7-7---5-5-5---|
E|-1-1-1-------------5-5-5-----------|

at hindi papayag ang pusong ito


e|-------x-x-x-------------x-x-x-----x-x-x------x-x-x--x-x-x-|
B|-------x-x-x-------------x-x-x-----x-x-x------x-x-x--x-x-x-|
G|-------x-x-x-------------x-x-x-----x-x-x------5-5-5--6-6-6-| (hold)
D|-------5-5-5-------------7-7-7-----8-8-8------5-5-5--6-6-6-|
A|-------5-5-3-------------7-7-7-----8-8-8------3-3-3--4-4-4-|
E|-------3-3-3-------------5-5-5-----6-6-6-------------------|

mawala ka...  sa aking piling.. mahal ko iyong dinggin..

>lead<
Guitar1

e|---------8b-------5b------------------------------|
B|-4s6-6-6------------------------------5-7-8-7-5---|
G|-----------5s7-7-7--------4-5-7--5-7--------------|
D|---------------------5-7--------------------------|
A|--------------------------------------------------|
E|--------------------------------------------------|

---8-6-5--8-6-5--8-6-5-6-8s10b-10-8-6-5-6-5-------------------|
--------6b-----6b--------------------------6s8-6-6-8-8s10-10b-|
--------------------------------------------------------------|
--------------------------------------------------------------|
--------------------------------------------------------------|
--------------------------------------------------------------|

Guitar2
     Fm		 D	  G	    C
e|-x-x-x-x---x-x-x-x---x-x-x-x---x-x-x-x-----|
B|-x-x-x-x---x-x-x-x---x-x-x-x---x-x-x-x-----|
G|-x-x-x-x---7-7-7-7---x-x-x-x---5-5-5-5-----|
D|-3-3-3-3---7-7-7-7---5-5-5-5---5-5-5-5-----|
A|-3-3-3-3---5-5-5-5---5-5-5-5---3-3-3-3-----|
E|-1-1-1-1-------------3-3-3-3---------------|

     Fm		 D	  G	    C
e|-x-x-x-x---x-x-x-x---x-x-x-x---x-x-x-x-----|
B|-x-x-x-x---x-x-x-x---x-x-x-x---x-x-x-x-----|
G|-x-x-x-x---7-7-7-7---x-x-x-x---5-5-5-5-----| (hold) then end with Fm
D|-3-3-3-3---7-7-7-7---5-5-5-5---5-5-5-5-----|
A|-3-3-3-3---5-5-5-5---5-5-5-5---3-3-3-3-----|
E|-1-1-1-1-------------3-3-3-3---------------|