Glen Hansard - All The Way Down Text Guitar Tab

Learn song with the online tabulature player
All the way down
Glen Hansard

Tuning:- EADG

 verse
G-----------------------------|
D-----------------------------|
A---2~ ----0~-----------------|     x4
E-------------------3~--------|

Pre-chorus
G---------------------------|
D---------------------------|
A---------------------------|   X2
E--2~----3~----5~-----------|

Chorus
G------------------------------------------------------|
D------------------------------------------------------|
A--5~------------------5~------------------------------|        X1
E------5~--7~---3----------5~----7~--------------------|

Verse
G-----------------------------|
D-----------------------------|
A---2~ ----0~-----------------|     x4
E-------------------3~--------|

Pre-chorus
G---------------------------|
D---------------------------|
A---------------------------|   X2
E--2~----3~----5~-----------|

Chorus
G------------------------------------------------------|
D------------------------------------------------------|
A--5~------------------5~------------------------------|        X2
E------5~--7~---3----------5~----7~--------------------|

 verse
G-----------------------------|
D-----------------------------|
A---2~ ----0~-----------------|     x4
E-------------------3~--------|

End On
G----------|
D----------|
A-2~-------|
E----------|