Glen Hansard And Marketa Irglova - If You Want Me Text Guitar Tab

Learn song with the online tabulature player
Alright people, here is the easy way to play this song. This is my first tab so have 
with me. You're going to have to figure out the strumming pattern yourself, here are the chords:

Capo 4th Fret

-1---0---0---|   So that would be Dm, Gm, and A7 I believe.
-3---3---2---|
-2---3---0---|
-0---0---2---|
-----x---0---|
-----3---x---|


The picking pattern is more complicated and I'm not sure how correct it is(maybe 80%?) 
it sounds good enough to me. You're going to have to work on the timing.

-1-----1-----1---------1--------|
---3-----3-------3--------3---3-|
-----2-----2-------2--------2---|
-0-------------------0----------|
--------------------------------|
--------------------------------|


-0-----0-----0---------0--------|
---3-----3-------3-------3---3--|
-----3-----3-------3-------3----|
--------------------------------|
--------------------------------|
-3-------------------3----------|


-0-----0-----0---------0--------|
---2-----2------2--------2---2--|
-----0-----0------0--------0----|
--------------------------------|
-0-------------------0----------|
--------------------------------|


-1-----1-----1---------1--------|
---3-----3-------3--------3---3-|
-----2-----2-------2--------2---|
-0-------------------0----------|
--------------------------------|
--------------------------------|

Repeat as necessary.

There is another way of playing it with a couple extra chords but this way is easiest. 
questions, comments, or corrections can email me: dodger10@hotmail.com

Good luck