Glen Hansard - Say It To Me Now Text Guitar Tab

Learn song with the online tabulature player
-------------------------------------------------------------------------------
                             SAY IT TO ME NOW - Glen Hansard
-------------------------------------------------------------------------------
Tabbed by: Paul Kiersey
Email: Ziggy2rasta@gmail.com

Tuning: E, B, E, G#, B, e

*I could'nt tab the strumming pattern because it'd take too long but its very 
easy to figure out*

INTRO:

e|-------0-------------0-------------0---------------------------------------|
B|-------0-------------0-------------0---------------------------------------|
G|-------0-------------0-------------0---------------------------------------|
E|-------12------------12------------12--------------------------------------|
B|-------0-------------0-------------0---------------------------------------|
E|----0--0---------10--10---------9--9---------------------------------------|

VERSE:

e|-------0----0-------------0-------------0----------------------------------|
B|-------0----0-------------0-------------0----------------------------------|
G|-------0----0-------------0-------------0----------------------------------|
E|-------12---11------------12------------12---------------------------------|(x2)
B|-------0----0-------------0-------------0----------------------------------|
E|----0--0----0---------10--10---------9--9----------------------------------|

BRIDGE (0:52 - "I didn't understand..."):

e|-------0------------0------------0------------0------------0------------0--|
B|-------0------------0------------0------------0------------0------------0--|
G|-------1------------3------------4------------3------------1------------7--|
E|-------0------------0------------0------------0------------0------------0--|
B|-------2------------4------------5------------4------------2------------7--|
E|----2--2---------4--4---------5--5---------4--4---------2--2---------7--7--|

CHORUS (1:11 - "This is what you've waited for..."):

e|----0---------0---------0---------0----------------------------------------|
B|----0---------0---------0---------0----------------------------------------|
G|----0---------0---------8---------5----------------------------------------|
E|----12--------14--------0---------0----------------------------------------|(x3)
B|----0---------13--------9---------5----------------------------------------|
E|----0---------0---------9---------5----------------------------------------|

       (1:49 - "So if you have something to say..."):

e|----0--------0--------0--------0--------0--------0--------0--------0-------|
B|----0--------0--------0--------0--------0--------0--------0--------0-------|
G|----0--------7--------5--------7--------5--------7--------5--------7-------|
E|----12-------0--------0--------0--------0--------0--------0--------0-------|
B|----0--------7--------5--------7--------5--------7--------5--------7-------|
E|----0--------7--------5--------7--------5--------7--------5--------7-------|

OUTRO (2:14):

e|----0---------------0---------------0---------------0----------------------|
B|----0---------------0---------------0---------------0----------------------|
G|----10-/--12--------12-\--10--------10-\--8---------8--\--7----------------|
E|----0---------------0---------------0---------------0----------------------|
B|----7--/--9---------9--\--7---------7--\--5---------5--\--4----------------|
E|----0---------------0---------------0---------------0----------------------|

e|----0---------------0------------------------------------------------------|
B|----0---------------0------------------------------------------------------|
G|----7-----8---------8------------------------------------------------------|
E|----0--/------------0------------------------------------------------------|
B|----4-----5---------0------------------------------------------------------|
E|----0---------------0------------------------------------------------------|


| /  slide up
| \  slide down
| h  hammer-on
| p  pull-off
| ~  vibrato
| +  harmonic
| x  Mute note
===============================================================================