Gloc 9 - Simpleng Tao Text Guitar Tab

Learn song with the online tabulature player
“Simpleng Tao”

Gloc 9
e---------------|
B---------------|
G---------------|       x2
D-4---8---6---11|
A-4---8---6---11|
D-4---8---6---11|


Verse I & Chorus
e---------------|   e--------------|  e----------|
B---------------|   B--------------|  B----------|
G---------------|x4 G--------------|  G----------|
D-4---8---6---11|   D--8--8--2--2--|  D--6----11-|
A-4---8---6---11|   A--8--8--2--2--|  A--6----11-|
D-4---8---6---11|   D--8--8--2--2--|  D--6----11-|
Play Verse/Chorus but last line play 
e----------------------|
B----------------------|
G----------------------|
D--6----11~------------|
A--6----11~------------|
D--6----11~------------|

Then Verse/Chorus until end