Glup! - Enamorado De Ti Text Guitar Tab

Learn song with the online tabulature player
++++++++++++++++++++++++++
| Glup!- Enamorado De Ti |
++++++++++++++++++++++++++


"Enamorado de tí, mon cherri..."

Tuning: EADG


Intro
1.
G|---------------------|
D|---------------------|
A|-0x----0x---00-0-1-1-|
E|---------------------|

2.
G|-4-4-2---2--4-4-2---2--4-4-2---2-4-2-4-|
D|-------4----------4----------4---------|
A|---------------------------------------|
E|---------------------------------------|

Verse
"Hay amores en la vida que no se pueden olvidar..."
3.
G|-4-4-2---2--4-4-2---2----------------------------------------------|
D|-------4----------4----5-5-5---5--7-7-7---7------------------------|
A|-----------------------------5----------7----5-5-5-5-5-5-555-4-444-|--x2
E|-------------------------------------------------------------------|

Pre-Chorus
"Y ahí estoy yo..."
4.
G|-----9---------------------------------------------0-0-0-0-0-0-0---|
D|-9~------9~-----7-7-5---5-7-5-7----0-0-0-0-0-0-0-4---------------4-|
A|-------7-----7--------7----------4---------------------------------|
E|-------------------------------------------------------------------|

"Y ahí estoy yo, junto a tí..."
5.
G|-----9------------------------------|
D|-9~------9~-------------------------|
A|-------7-----7--0x----0x---00-0-1-1-|
E|------------------------------------|

Chorus
"Enamorado de ti, mi amor..."
6.
G|-----------------------------------------|
D|-----------------------------------------|
A|-2-2-22222-----------0-0-00000-0000-0001-|--x3
E|-----------3-3-33333---------------------|

"Enamorado de tus ojos..."
7.
G|-----------------------------------------|
D|-----------------------------------------|
A|-2-2-22222-----------0x----0x---00-0-1-1-|
E|-----------3-3-33333---------------------|

Verse
"Hay personas en la vida que no se pueden olvidar..."
8.
G|-4-4-2---2--4-4-2---2----------------------------------------------|
D|-------4----------4----5-5-5---5--7-7-7---7------------------------|
A|-----------------------------5----------7----5-5-5-5-5-5-555-4-444-|--x2
E|-------------------------------------------------------------------|

Pre-Chorus
"Y ahí estoy yo..."
9.
G|-----9---------------------------------------------0-0-0-0-0-0-0---|
D|-9~------9~-----7-7-5---5-7-5-7----0-0-0-0-0-0-0-4---------------4-|
A|-------7-----7--------7----------4---------------------------------|
E|-------------------------------------------------------------------|

"Y ahí estoy yo, junto a tí..."
10.
G|-----9------------------------------|
D|-9~------9~-------------------------|
A|-------7-----7--0x----0x---00-0-1-1-|
E|------------------------------------|

Chorus
"Enamorado de ti, mi amor..."
11.
G|-----------------------------------------|
D|-----------------------------------------|
A|-2-2-22222-----------0-0-00000-0000-0001-|--x3
E|-----------3-3-33333---------------------|

"Enamorado de tus ojos..."
12.
G|-----------------------------------------|
D|-----------------------------------------|
A|-2-2-22222-----------0x----0x---00-0-1-1-|
E|-----------3-3-33333---------------------|

Outro
13.
G|-4-4-2---2--4-4-2---2----------------------------------------------|
D|-------4----------4----5-5-5---5--7-7-7---7------------------------|
A|-----------------------------5----------7----5-5-5-5-5-5-555-4-444-|--x2
E|-------------------------------------------------------------------|

Pre-Chorus
"Y ahí estoy yo..."
14.
G|-----9---------------------------------------------0-0-0-0-0-0-0---|
D|-9~------9~-----7-7-5---5-7-5-7----0-0-0-0-0-0-0-4---------------4-|
A|-------7-----7--------7----------4---------------------------------|
E|-------------------------------------------------------------------|

"Y ahí estoy yo, junto a tí..."
15.
G|-----9------------------------------|
D|-9~------9~-------------------------|
A|-------7-----7--0x----0x---00-0-1-1-|
E|------------------------------------|

Chorus
"Enamorado de ti, mi amor..."
16.
G|-----------------------------------------|
D|-----------------------------------------|
A|-----------------------------------------|--x3
E|-----------------------------------------|

"Enamorado de ti, mon cherri..."
17.
G|---------------------|
D|---------------------|
A|-0x----0x---00-0-1-1-|
E|---------------------|

"Enamorado de ti, mi amor..."
18.
G|-----------------------------------------|
D|-----------------------------------------|
A|-2-2-22222-----------0-0-00000-0000-0001-|--x6
E|-----------3-3-33333---------------------|

19.
G|------------------------------|
D|------------------------------|
A|-0x----0x---00-0-1-1-2~-------|
E|------------------------------|


Lyrics:


Hay amores en la vida que no se pueden olvidar
Hay lugares en la vida que no se deben olvidar

Y ahí estoy yo con mis ojos
Y ahí estoy yo con cara de tonto
Y ahí estoy yo junto a tí

Enamorado de ti, mi amor
Enamorado de ti, my love
Enamorado de ti, mon cherri
Enamorado de tus ojos

Hay personas en la vida que no se pueden olvidar
Hay cariños en la vida que no se quieren olvidar



+++++++++++++++++++++++++++++++++
| RaiLeff                       |
| Underground__Dora@Hotmail.Com |
+++++++++++++++++++++++++++++++++