Gob - 18 Chords

Main Riff
Main Riff
 
         
         
         
         
         
2
3
1
4 fr
         
         
         
         
         
X
4
3
1
2
1
7 fr
         
         
         
         
         
X
1
4
4
4
X
2 fr
         
         
         
         
         
X
X
1
2
4
3
4 fr
         
         
         
         
         
4
3
1
2
1
7 fr
         
         
         
         
         
X
1
3
3
3
1

9 fr
         
         
         
         
         
4
3
1
1
1
X
9 fr
         
         
         
         
         
3
2
1
1
1
4
12 fr
         
         
         
         
         
1
3
4
2
1
1
4 fr
         
         
         
         
         
X

Cm

variations
4 fr
         
         
         
         
         
X
1
3
4
2
1
9 fr
         
         
         
         
         
1
3
4
1
1
1
         
         
         
         
         
X
4
2
1
X
X
         
         
         
         
         
X
4
3
1
2
X
4 fr
         
         
         
         
         
X
1
X
X
2
1
11 fr
         
         
         
         
         
X
X
1
3
4
2

4 fr
         
         
         
         
         
X
X
         
         
         
         
         
X
1
2
3
5 fr
         
         
         
         
         
1
3
4
2
1
1
2 fr
         
         
         
         
         
X
1
1
1
4
         
         
         
         
         
X
X
1
2
2 fr
         
         
         
         
         
3
2
1
1
1
4
7 fr
         
         
         
         
         
X
X
1
3
4
3

9 fr
         
         
         
         
         
X
4
3
1
2
1
12 fr
         
         
         
         
         
X
1
3
3
3
1
         
         
         
         
         
X
X
1
3
2
2 fr
         
         
         
         
         
X
4
3
1
2
1
5 fr
         
         
         
         
         
X
1
2
3
4
1
5 fr
         
         
         
         
         
X
1
4
4
4
X
7 fr
         
         
         
         
         
4
3
1
1
1
X
7 fr
         
         
         
         
         
3
2
1
1
1
4

10 fr
         
         
         
         
         
1
3
4
2
1
1
12 fr
         
         
         
         
         
X
X
1
3
4
3
5 fr
         
         
         
         
         
X
X
7 fr
         
         
         
         
         
1
3
4
2
1
1
         
         
         
         
         
X
2
1
X
3
         
         
         
         
         
X
1
4
4
4
X
         
         
         
         
         
X
1
3
3
3
1
4 fr
         
         
         
         
         
4
3
1
1
1
X
4 fr
         
         
         
         
         
3
2
1
1
1
4

9 fr
         
         
         
         
         
X
X
1
3
4
3
11 fr
         
         
         
         
         
X
4
3
1
2
1

Am

variations
4 fr
         
         
         
         
         
1
3
4
1
1
1
6 fr
         
         
         
         
         
X
X
1
3
4
2
4 fr
         
         
         
         
         
X
X
3
1
1
1
         
         
         
         
         
4
2
1
X
X
X
8 fr
         
         
         
         
         
X
4
3
1
2
X
11 fr
         
         
         
         
         
X
1
3
4
2
1

E/G

variations
4 fr
         
         
         
         
         
1
4
3
1
2
1
         
         
         
         
         
4
2
3
1
4 fr
         
         
         
         
         
1
X
X
2
4
3
4 fr
         
         
         
         
         
X
X
3
1
2
1

Fm

variations
         
         
         
         
         
1
3
4
1
1
1
4 fr
         
         
         
         
         
X
X
1
3
4
2
         
         
         
         
         
X
X
3
1
1
1
9 fr
         
         
         
         
         
X
1
3
4
2
1
6 fr
         
         
         
         
         
X
4
3
1
2
X

A

variations
4 fr
         
         
         
         
         
1
3
4
2
1
1
4 fr
         
         
         
         
         
X
X
3
2
1
1
6 fr
         
         
         
         
         
X
X
1
2
4
3
         
         
         
         
         
3
2
1
1
1
4
8 fr
         
         
         
         
         
X
4
3
1
2
1
11 fr
         
         
         
         
         
X
1
2
3
4
X

11 fr
         
         
         
         
         
X
1
3
3
3
1
         
         
         
         
         
X
3
2
1
3 fr
         
         
         
         
         
X
1
2
3
4
1
8 fr
         
         
         
         
         
1
3
4
2
1
1
3 fr
         
         
         
         
         
X
1
X
3
4
1
5 fr
         
         
         
         
         
3
2
1
1
1
4
10 fr
         
         
         
         
         
X
X
1
3
4
3

12 fr
         
         
         
         
         
X
4
3
1
2
1
3 fr
         
         
         
         
         
X
No chord
    
Standard guitar tuning:
E
A
D
G
B
E
No capo
Key: E Chords used:

Intro

Cm--A--E--A--Cm--A--E--D--A-B-

Theo:
e|-9--7--9--4---4---|
B|------------5---5-|
G|------------------|
D|------------------| x5
A|------------------|
E|------------------|

Verse 1

E I stood by somebody Aelse and then I stood by Eyou I couldn't move my Alegs I didn't know what to Cmdo I fail to find the Amwords I try hard to be Acool I die to hear your Bvoice it's smoothly ringing in the room

Verse 2

E I see you're a surgeon in the Alooks what could you possibly see in Eme I lost the job I Ahad who picked me up when I'm in mom and Cmdad's You know I'll let you cut me Amup I know you hate to see me Ableed Is it the color of my Bblood or me in the complete?
Theo: in "mom and dad's", palm muted

Cm Am

e|---------------------------------|---------------------------------| B|---------------------------------|---------------------------------| G|---------------------------------|---------------------------------| D|---------4-4-6-6-----------------|---------4-4-6-6-----------------| A|-4-4-7-7---------4-4-4-4-4-4-4-4-|-6-6-7-7---------6-6-6-6-6-6-6-6-| E|---------------------------------|---------------------------------|
                A                                   B
e|---------------------------------|---------------------------------|
B|---------------------------------|---------------------------------|
G|---------------------------------|---------------------9--9--9--9--|
D|---------4-4-6-6-----------------|-----6-6-7-7-9-9-9-9-9--9--9--9--|
A|-4-4-7-7---------4-4-4-4-4-4-4-4-|-6-6-----------------7--7--7--7--|
E|---------------------------------|---------------------7--7--7--7--|

Chorus 1

A 18 They E/Ghad it out for Bus and We were Fmalways set for a Afall You saved E/G197--B9 to me it Fmwas the end of the Aworld Yeah right, Amwe're safe we're Bcool I know you Dalways wanted more A Pick me we're so clean Awe'll wake up when the Bworst is over

Interlude

A--E--A--Cm--A--E--D--A-B-

Verse 3

E Did I tell you I was premaAture? I'm not fit to follow Erules I always fuck things Aup I guess that makes life more interesCmting You think that I'm abAmsurd well certainly with Ayou I am absolutely asBsured I am ill conceived
Theo: in "interesting", palm muted

Cm Am

e|---------------------------------|---------------------------------| B|---------------------------------|---------------------------------| G|---------------------------------|---------------------------------| D|---------4-4-6-6-----------------|---------4-4-6-6-----------------| A|-4-4-7-7---------4-4-4-4-4-4-4-4-|-6-6-7-7---------6-6-6-6-6-6-6-6-| E|---------------------------------|---------------------------------|
                A                                   B
e|---------------------------------|---------------------------------|
B|---------------------------------|---------------------------------|
G|---------------------------------|---------------------9--9--9--9--|
D|---------4-4-6-6-----------------|-----6-6-7-7-9-9-9-9-9--9--9--9--|
A|-4-4-7-7---------4-4-4-4-4-4-4-4-|-6-6-----------------7--7--7--7--|
E|---------------------------------|---------------------7--7--7--7--|

C

Interlude

A Cm A Cm A Cm A Cm

Tom:
e|---4-------4-----|
B|-----5-------5---|
G|-2-----2-------6-|
D|-----------------| x4
A|----------4------|
E|-----------------|
Theo:
e|------11-12------9-|
B|-12---------12-----|
G|----9----------9---|
D|-------------------| x4
A|-------------------|
E|-------------------|
Bass
G|---------------|
D|-----2--1------|
A|-0-0-------4-4-|
E|---------------|

Bridge

Cm There is always something Amwrong but I need to see it Athrough I don't mean to be obsessed I don't need to be aCmmused I can't stand to be a sAmtain that needs to be reAmoved If I sacrificed myBself then I'd know I never knew you
Tom: Bridge

Cm Am

e|---------------------------------|---------------------------------| B|---------------------------------|---------------------------------| G|---------------------------------|---------------------------------| D|---------4-4-6-6-----------------|---------4-4-6-6-----------------| A|-4-4-7-7---------4-4-4-4-4-4-4-4-|-6-6-7-7---------6-6-6-6-6-6-6-6-| E|---------------------------------|---------------------------------|
                                 A
e|-----------------------------------------------------------------|
B|-----------------------------------------------------------------|
G|------------------------------------------------------9--9--9--9-|
D|---------4-4-6-6----------------------6-6-7-7-9-9-9-9-9--9--9--9-|
A|-4-4-7-7---------4-4-4-4-4-4-4-4-6-6------------------7--7--7--7-|
E|------------------------------------------------------7--7--7--7-|
               Cm                                 Am
e|---------------------------------|---------------------------------|
B|---------------------------------|---------------------------------|
G|---------------------------------|---------------------------------|
D|---------4-4-6-6-----------------|---------4-4-6-6-----------------|
A|-4-4-7-7---------4-4-4-4-4-4-4-4-|-6-6-7-7---------6-6-6-6-6-6-6-6-|
E|---------------------------------|---------------------------------|
                A                                B
e|---------------------------------|--------------------------|
B|---------------------------------|--------------------------|
G|---------------------------------|--------------------------|
D|---------4-4-6-6-----------------|-----6-6-7-7-9-9-9-9-hold-|
A|-4-4-7-7---------4-4-4-4-4-4-4-4-|-6-6----------------------|
E|---------------------------------|--------------------------|
Theo: Bridge

Cm Am

e|---------------------------------|---------------------------------| B|---------------------------------|---------------------------------| G|-4-4-4-6-6-6-4-4-6-6-6-6-4-4-6-6-|-6-6-6-8-8-8-6-6-8-8-8-8-6-6-8-8-| D|---------------------------------|---------------------------------| A|---------------------------------|---------------------------------| E|---------------------------------|---------------------------------|
                  A
e|---------------------------------4-----------|
B|---------------------------------5-----------|
G|-8-8-8-9-9-9-8-8-9-9-9-9-8-8-9-9-4-----------|
D|---------------------------------------------|
A|---------------------------------------------|
E|---------------------------------------------|
               Cm                                 Am
e|---------------------------------|---------------------------------|
B|---------------------------------|---------------------------------|
G|-4-4-4-6-6-6-4-4-6-6-6-6-4-4-6-6-|-6-6-6-8-8-8-6-6-8-8-8-8-6-6-8-8-|
D|---------------------------------|---------------------------------|
A|---------------------------------|---------------------------------|
E|---------------------------------|---------------------------------|
                 A                           B
e|---------------------------------|-------------------|
B|---------------------------------|-------------------|
G|-8-8-8-9-9-9-8-8-9-9-9-9-8-8-9-9-|-6-6-6-8-8-8-4-6-4-|
D|---------------------------------|-------------------|
A|---------------------------------|-------------------|
E|---------------------------------|-------------------|

Chorus 2

A 18 They E/Ghad it out for Bus We were Fmalways set for a Afall You saved E/G197--B9 to me it Fmwas the end of the Aworld Yeah right, Amwe're safe we're Bcool I know you Fmalways set for Afall Amalways set for BfallFm

Chorus 3

A 18 They E/Ghad it out for BusFm A 18 They E/Ghad it out for BusFm I know you Dalways wanting more A Pick me we're so clean Awe'll wake up when the Bworst is over A Take me steering wheel Ato the cliff now we're Bgoing over A Kiss me kiss and bleed Awe'll wake up now the Bworst is over

Outro

A--Cm-A(hold)
Theo:
e|---4-------7----4---------4-0---0---|
B|-----5---5--------5---2-------2---2-|
G|-2-----2------2-----2---1-----------|
D|------------------------------------|
A|------------------------------------|
E|------------------------------------|
e|---4-------7----4-------|
B|-----5---5--------5-----|
G|-2-----2------2-----2---|
D|----------------------6-|
A|----------------------6-|
E|----------------------4-|

All Content on this page is the property of the copyright owner of the original composition.