Gob - Fed Up Text Guitar Tab

Learn song with the online tabulature player
------------------------------------------------------------------
Fed Up ( Gob )
------------------------------------------------------------------

Hum I hope this is right... ( Only guitar 1 is tabbed )

Usually tuned down but this tabebd uses normal tabbing. The only consequence
is you’ll have to play chord with two strings during the break. The chords are correct.

Tabbed by must41
Please send corrections to mathieumg_186<-remove this->@hotmail.com

------------------------------------------------------------------


Intro ( get rythm from the CD, it’s pretty obvious )
|----------------------|-----------------6--8----|
|----------------------|---------9-6-9-6---------|
|----------------------|-----------------------5-|
|----------------------|-------------------------|
|--3--6--4--8-6--6--4--|-3--6--4-----------------|
|----------------------|-------------------------|

Intro part 2 ( play all chords twice except * 4 times )
|-------------------------|
|-------------------------|
|--6*---------------------|
|--6----6*---10--8--6--6--|
|--4----6----10--8--6--6--|
|-------4-----8--6--4--4--|


Verse ( P.M., repeat this riff several times )
|--------------------------|
|--------------------------|
|--------3333--------------|
|--3333--3333--3333--6666--|
|--3333--1111--3333--6666--|
|--1111--------1111--4444--|

Chorus ( play all chords twice except * 4 times )
|------------------|
|------------------|
|--5*-5*-----------|
|--5--5--10--8--6--|
|--3--3--10--8--6--|
|---------8--6--4--|


Solo ( guitar 2 not tabbed )
|--------|--------|
|--------|--------|
|--------|--------|
|--6666--|--6666--|
|--6666--|--6666--|
|--4444--|--4444--|


Break
|-------------|
|-------------|
|-------------|
|--5--6--3--1-|
|--5--6--3--1-|
|--3--4--1----|