God Help The Girl - Come Monday Night Text Guitar Tab

Learn song with the online tabulature player
-------------------------------------------------------------------------------
			COME MONDAY NIGHT - God Help The Girl
-------------------------------------------------------------------------------

Tabbed By: Adam Kopcinski
e-mail: solarflux@planetquake.com

Tuning: Standard (Key of A major)

00:36
G|------------|
D|--7-7-------| X 8
A|------9-7---|
E|------------|
00:46
G|---------------------------------------------------------------------------|
D|--7-7---7-------7-7---7----------------------------------------------------|
A|------9-------------9-----9-7-9--5-5-----5-5-----5-5---5--5----------------|
E|-------------------------------------7-5-----7-5-----7------7-5------------|

G|-----------------------------9-9------9-9------9-9----9---9----------------|
D|--9-9---9-------7-7---7----------11-9-----11-9-----11-------11-9-----------|
A|------9-------------7------------------------------------------------------|
E|---------------------------------------------------------------------------|

G|-----------------------------9-9------9-9----------------------------------|
D|----------------7-7---7----------11-9-----11-9-----------------------------|
A|--5-5---5-----------7--------------------------9-----9----7-5-7------------|
E|------5--------------------------------------------9-----------------------|

G|---------------------------------------------------------------------------|
D|---------------------------------------------------------------------------|
A|--5-5-----5-5-----5-5---5--------5--7-7-----7-7-----7-7---7-------7--------|
E|------7-5-----7-5-----7------5-7--------9-7-----9-7-----9-----7-9----------|

01:16
G|---------------------------------------------------------------------------|
D|--7-7---7-------7-7---7----------------------------------------------------|
A|------9-------------9-----9-7-9--5-5-----5-5-----5-5---5--5----------------|
E|-------------------------------------7-5-----7-5-----7------7-5------------|

G|-----------------------------9-9------9-9------9-9----9---9----------------|
D|--9-9---9-------7-7---7----------11-9-----11-9-----11-------11-9-----------|
A|------9-------------7------------------------------------------------------|
E|---------------------------------------------------------------------------|

G|-----------------------------9-9------9-9----------------------------------|
D|----------------7-7---7----------11-9-----11-9-----------------------------|
A|--5-5---5-----------7--------------------------9-----9----7-5-7------------|
E|------5--------------------------------------------9-----------------------|

G|---------------------------------------------------------------------------|
D|---------------------------------------------------------------------------|
A|--5-5-----5-5-----5-5---5--------5--7-7-----7-7-----7-7---7-8--------------|
E|------7-5-----7-5-----7------5-7--------9-7-----9-7-----9------------------|

01:48
G|---------------------------------------------------------------------------|
D|-----------------------------7-7-----7-7-----7-7---7-----------------------|
A|--9-9---9---9---5-5---5----------9-7-----9-7-----9-----9-7-9---------------|
E|------9-------------5------------------------------------------------------|

G|---------------------------------------------------------------------------|
D|---------------------------------------------------------------------------|
A|--9-9---9-------5-5----5-----4-4-2-0-4-4-2-0-4-4-2-4----2-4-5--------------|
E|------9-------------5------------------------------------------------------|

G|---------------------------------------------------------------------------|
D|---------------------------------------------------------------------------|
A|--7-7-----7-7-----7-7---7---------7----------------------------------------|
E|------9-7-----9-7-----9-------7-9------------------------------------------|

02:08
G|---------------------------------------------------------------------------|
D|--7-7---7-------7-7---7----------------------------------------------------|
A|------9-------------9-----9-7-9--5-5-----5-5-----5-5---5--5----------------|
E|-------------------------------------7-5-----7-5-----7------7-5------------|

G|-----------------------------9-9------9-9------9-9----9---9----------------|
D|--9-9---9-------7-7---7----------11-9-----11-9-----11-------11-9-----------|
A|------9-------------7------------------------------------------------------|
E|---------------------------------------------------------------------------|

G|-----------------------------9-9------9-9----------------------------------|
D|----------------7-7---7----------11-9-----11-9-----------------------------|
A|--5-5---5-----------7--------------------------9-----9----7-5-7------------|
E|------5--------------------------------------------9-----------------------|


G|----------------------------------------|
D|-----------------7-7---7----------------|
A|-5-5-----5-5---------9-----9-7-9--------| X 8
E|-----7-5-----7-5------------------------|

03:03
G|----------------------------------------|
D|-----------------7-7---7-----7h9--------|
A|-5-5-----5-5---------9---7h9------------| 
E|-----7-5-----7-5------------------------|

G|----------------------------------------|
D|-----------------7-7---7----------------|
A|-5-5-----5-5---------9-----9-7-9--------| X repeat until fade out
E|-----7-5-----7-5------------------------|

| /  slide up
| \  slide down
| h  hammer-on
| p  pull-off
| ~  vibrato
| +  harmonic
| x  Mute note
===============================================================================