Gogol Bordello - Sally Text Guitar Tab

Learn song with the online tabulature player
Bass comes in with guitar after the clapping bit with Hutz...

G---------------|
D-7-7-7-7-7-7-7-|
A--7-7-7-7-7-7--|   Keep doing this until...
E---------------|

0:36
G--------------------------|
D-7-7---------12-12-12-12--|
A--7-7--9-10---12-12-12-12-|  Keep doing this and go back to...
E--------------------------|

0:44
G----------|
D-7-7-7-7--|
A--7-7-7-7-| And then keep going until...
E----------|

0:50
G-----------------------------------------|
D-7-7-------------------------------------|
A--7---8-9-10-11-12---12-12-12---12-12-12-|
E-----------------------------------------|

G------------------------------------|
D------------------------------------|
A-8-9-10-11-12---12-12-12---12-12-12-|
E------------------------------------|

Then you launch straight back into the main riff...
G---------------|
D-7-7-7-7-7-7-7-|
A--7-7-7-7-7-7--|
E---------------|

That's basically it, I've given all the pieces you need, just listen to the song get the 
and you should be good