Gogol Bordello - Tribal Connection Text Guitar Tab

Learn song with the online tabulature player
Tribal Connection-Gogol Bordello

Tabbed by Jake Sanford

Intro/Verse

E-5h7--7------------5--2h4------2-------------------------|
A----5--5---7h9 7/5 --------2h5----0-2--------------------|
D---------------------------------------------------------|
G---------------------------------------------------------|

Chorus

E-5h7---7------5--5--------0-3--3--------0  2----------4------|
A-----5--5--5------0-2--2---------0-2--2------2/5-4-2---2-----|
D-------------------------------------------------------------|
G-------------------------------------------------------------|

It's really easy, just listen to the track for the rhythm. Lots of room to improvise on this one.