Gogol Bordello - Undestructable Text Guitar Tab

Learn the song with the online tablature player
Undestructable (Gogol Bordello

This is my first ever tab. Considering there are no bass tabs for this song that I know
of, I thought it would be good to do this one. It's not too hard to learn, but it is a
spectacular song if you like Gogol Bordello and play bass.

Verse 1
    E                F               G               C
G |-----------------------------------------------------------------|
D |-----------------------------------------------------------------|
A |-------------2----------------3---------------5---3---3---3---3-1| x4
E |-0---0---0-----0--1---1---1-----1-3---3---3-----3----------------|

Verse 2
    A                F               G               C
G |-----------------------------------------------------------------|
D |-------------2---------------------------------------------------|
A |-0---0---0-----0--------------3---------------5---3---3---3---5-3|
E |------------------1---1---1-----1-3---3---3-----3----------------|

    A                F               G               C
G |-----------------------------------------------------------------|
D |-------------2---------------------------------------------------|
A |-0---0---0-----0--------------3---------------5---3-3-3-3-3-3-3-3|
E |------------------1---1---1-----1-3---3---3-----3----------------|

Chorus*(See note)
    F               G               A
G |-----------------------------------------------------------------|
D |----------------------------------------------(2)-------------(2)|
A |---------------------------------0---0---0---0---0---0---0---0---| x3
E |-1---1---1---1---3---3---3---3-----------------------------------|

    F               G
G |------------------------------|
D |------------------------------|
A |------------------------------|
E |-1---1---1---1---3------------|

Bridge
    E                F               G               C
G |----------------------------------------------------------------|
D |----------------------------------------------------------------|
A |-------------2---------------3---------------5---3--------------|
E |-0---0---0-----0-1---1---1-----1-3---3---3-----3----------------|

    A                F               G               C
G |----------------------------------------------------------------|
D |----------------------------------------------------------------|
A |-0-0-0-0-0-0-0-0---------------------------------3-3-3-3-3-3-3-3|
E |-----------------1-1-1-1-1-1-1-1-3-3-3-3-3-3-3-3----------------|

    A                F               G               C
G |----------------------------------------------------------------|
D |----------------------------------------------------------------|
A |-0-0-0-0-0-0-0-0---------------------------------3-3-3-3-3-3-3-3|
E |-----------------1-1-1-1-1-1-1-1-3-3-3-3-3-3-3-3----------------|

    A                F               G               C
G |----------------------------------------------------------------|
D |----------------------------------------------------------------|
A |-0-----------------------------------------------3-3-3-3-3-3-3-3|
E |-----------------1---------------3------------------------------|

Ending
    F               G               A
G |-----------------------------------------------------------------|
D |-----------------------------------------------------------------|
A |---------------------------------0---------------0---------------|
E |-1---------------3-----------------------------------------------|

    F               G               A
G |-----------------------------------------------------------------|
D |-----------------------------------------------------------------|
A |---------------------------------0-------------------------------|
E |-1---------------3-----------------------------------------------|

Song Order:
Verse 1
Verse 2
Chorus
Verse 1
Verse 2
Chorus
Bridge

Chorus
x2 without the pause at the end)
Ending