Goo Goo Dolls - Lazy Eye Text Guitar Tab

Learn the song with the online tablature player
Intro
(with flanger/phaser or such effect)
e--------------------------------------------------------------------
B--------------------------------------------------------------------
G---7------7-7-7-8------8-8-8-7------7-7-7-8-----(feedback)----------
D---7------7-7-7-8------8-8-8-7------7-7-7-8-------------------------
A---5------5-5-5-6------6-6-6-5------5-5-5-6-------------------------
E--------------------------------------------------------------------

(Riff 1)
        D                               F       Bb
e------------------------------------------------------------------
B------------------------------------------------------------------
G---5h7-7--5h7-7--5h7-------------3----3-3-------------------------
D---7-7-7--7-7-7--7-7----x-3---3--3----3-3-------------------------
A---5-5-5--5-5-5--5-5----x-3---3--1----1-1-------------------------
E------------------------x-1---1-----------------------------------
(4 times total)

Verse
e--------------------------------------------------------------------
B--------------------------------------------------------------------
G--x-x-----------x-x-3-3--------------x-x----------------------------
D--x-x-3-3-------x-x-3-3--------------x-x-3-3------------------------
A--x-x-3-3-------x-x-1-1--------------x-x-3-3------------------------
E--x-x-1-1-------x-x------------------x-x-1-1------------------------
        The world spins round the secret lives

e-----------------------------------------------------
B-----------------------------------------------------
G--------x-x-3-3--------------------------------------
D--------x-x-3-3--------------------------------------
A--------x-x-1-1--------------------------------------
E--------x-x------------------------------------------
  of everyone that needs to hide

Riff 1
2x)

(verse)
A cheap parade of endless lies
Filters through this lazy eye

Bridge
  C                D              Bb
e----------|------------|--1----1-1-1-1-1--1---1-1-1-1-1-------------
B------0---|------3-3---|--3----3-3-3-3-3--3---3-3-3-3-3-------------
G---0---0--|-----2-2-2--|--3----3-3-3-3-3--3---3-3-3-3-3-------------
D--2-2---2-|----0-----0-|--3----3-3-3-3-3--3---3-3-3-3-3-------------
A-3--------|------------|--1----1-1-1-1-1--1---1-1-1-1-1-------------
E----------|------------|------------------------------------------

  And I don't believe in signs
C       D                        Bb
No, I don't believe your lies

C5 C5

Chorus
(Riff 1)
D     F         Bb
       Caught in the breakdown
D     F         Bb
       Caught in the breakdown
D     F         Bb
       Caught in the breakdown
D    F          Bb
       Caught in the breakdown

(verse)
Lose yourself in no one's life
Trapped in nowhere's empty light

Words like fists they tear you down
Crash before they hit the ground

(bridge)
And I don't believe in signs
No, I don't believe your lies

(chorus)
Caught in the breakdown
Caught in the breakdown
Caught in the breakdown
Caught in the breakdown

Solo
e-------------|-----------8-10-------------------------
B---10--8--6--|--10-10-10------------------------------
G-------------|----------------------------------------
D-------------|----------------------------------------
A-------------|----------------------------------------
E-------------|----------------------------------------

(intro)

(bridge)
And I don't believe in signs
No, I don't believe your lies
No, I don't believe your lies

(chorus)
Caught in the breakdown
Caught in the breakdown
Caught in the breakdown
Caught in the breakdown
Caught in the breakdown
Caught in the breakdown
Breakdown
Caught in the breakdown