Goo Goo Dolls - Nothing Is Real Text Guitar Tab

Learn the song with the online tablature player
Tabbed & Arranged by: Josh Daley

Note: Throughout the whole song make your top 4 strings very prominent
      and the bottom two strings barely audible.

Verse

--0----0----0----0----|
--0----0----0----0----|
--5----4----2----4----|
--5----5----3----5----|
--3----5----3----5----|
-------3----1----3----|

Pre-chorus

--0----0----0----0----|
--0----0----0----0----|
--2----4----2----4----|
--3----5----3----5----|
--3----5----3----5----|
--1----3----1----3----|

Chorus

--0----0----0----0----|
--0----0----0----0----|
--5----4----2----4----| x2
--5----5----3----5----|
--3----5----3----5----|
-------3----1----3----|

--0----0----0---------|
--0----0----0---------|
--x----4----2----4----|
--7----5----3----5----| Let Ring
--7----5----3----5----|
--5----3----1----3----|

Solo

-------------------------------------------------------------|
-------------------------------------------------------------|
--5-5-5-7-7-9-9-4-4-4-5-5-7-7--------------------------------|
--x-x-x-x-x-x-x-x-x-x-x-x-x-x-7-7-7-9-9-10-10-5-5-3-3-2-2-0--|
--3-3-3-5-5-7-7-2-2-2-3-3-5-5-x-x-x-x-x--x--x-x-x-x-x-x-x----|
------------------------------5-5-5-7-7--8--8-3-3-1-1-0-0----|

-------------------------------------------------------------------|
-------------------------------------------------------------------|
--5-5-5-7-7-9-9-10-10-9-9-7-7-5-5-10-11-9-9-7-7-5-5----------------|
--x-x-x-x-x-x-x--x--x-x-x-x-x-x-x--x--x-x-x-x-x-x-x-5-5-5-5-5-5-5--|
--3-3-3-5-5-7-7--8--8-7-7-5-5-3-3--8--9-7-7-5-5-3-3-x-x-x-x-x-x-x--|
----------------------------------------------------3-3-3-3-3-3-3--|

Outro
chorus:

--0----0----0----0----|
--0----0----0----0----|
--5----4----2----4----| x4
--5----5----3----5----|
--3----5----3----5----|
-------3----1----3----|

--0----0----0---------|
--0----0----0---------|
--x----4----2----4----| Let Ring
--7----5----3----5----|
--7----5----3----5----|
--5----3----1----3----|