Goo Goo Dolls - Slide Acoustic Text Guitar Tab

Learn the song with the online tablature player
Only 4 chords used:

Em7     022033
Dsus2   000233
Cadd9   032033
G       320033

Intro

e-----------------------------------------|
B------3-------3---------3-------3----3---|
G----0---2---2---2-----0---0---0----------|
D--2-------0-------0----------------------|
A--------------------3--------------------|
E----------------------------3-----2------|

e-----------------------------------------|
B------3-------3---------3-------3----3---|
G----0---2---2---2-----0---0---0----------|
D--2-------0-------0----------------------|
A--------------------3--------------------|
E----------------------------3-----2------|

Em7                     Dsus2
Could you whisper in my ear

                     Cadd9
The things you wanna feel

I'll give you anything to feel it coming.

Em7                    Dsus4
Do you wake up on your own,

                 Cadd9
Wonder where you are

Live with all your faults?

                        Cadd9

Riff
-------------------3------|
       --------3----------3------|
       ------0---0--------0------|
       --0h2-------0------2------|
       -------------------3------|
       -------------------0------|

I wanna wake up where you are

                        Cadd9

Riff
-------------------3------|
       --------3----------3------|
       ------0---0--------0------|
       --0h2-------0------2------|
       -------------------3------|
       -------------------0------|

I won't say anything at all,

Dsus2
So why don't you slide?

play these chords:    Cadd9, G, Cadd9, G, Cadd9, G, Dsus2

Em7                         Dsus2
Don't you love the life you killed?

                     Cadd9
The priest is on the phone

Your father hit the wall

Your Ma disowned you.

Em7                       Dsus2
I don't suppose I'll ever know

                      Cadd9
What it means to be a man

It's something I can't change

I'll live around it...

I wanna wake up where you are

                        Cadd9

Riff
-------------------3------|
       --------3----------3------|
       ------0---0--------0------|
       --0h2-------0------2------|
       -------------------3------|
       -------------------0------|

I won't say anything at all

Dsus2
So why don't you slide?

Play these:  Cadd9, G, Cadd9, G, Cadd9, G, Dsus2

Cadd9          G              Cadd9            G
And I'll do anything you ever dreamed to be complete

       Cadd9         G            Dsus2
Little pieces of the nothing that fall

Em7                    Dsus2
Oh May, put your arms around me

         Cadd9             G               Cadd9        G
What you feel is what you are and what you are is beautiful

Em7                   Dsus2            Cadd9
Oh May, you wanna get married, or run away?

Bridge
Cadd9  G  Cadd9  G  Cadd9  G  Dsus2

Cadd9          G              Cadd9            G
And I'll do anything you ever dreamed to be complete

       Cadd9         G            Dsus2
Little pieces of the nothing that fall

Em7                    Dsus2
Oh May, put your arms around me

         Cadd9            G                Cadd9        G
What you feel is what you are and what you are is beautiful

Em7                   Dsus2            Cadd9  G  Cadd9
Oh May, you wanna get married, or run away?

                                Dsus2
I wanna wake up where you are...

Cadd9          G              Cadd9          G
And I'll do anything you ever dream to be complete

       Cadd9         G            Dsus2
Little pieces of the nothing that fall...

              Cadd9              G                   Cadd9          G
Why don't you slide between them sheets of all those beds you never knew

     Cadd9          G          Em7            Dsus2
Just slide up to my room, just slide up to my room

And I will run away, run away run away...

Outro

e-----------------------------------------|
B------3-------3---------3-------3----3---|
G----0---2---2---2-----0---0---0----------|
D--2-------0-------0----------------------|
A--------------------3--------------------|
E----------------------------3-----2------|

                               G
e------------------------------3--|
B------3-------3---------3-----3--|
G----0---2---2---2-----0---0---0--|
D--2-------0-------0-----------0--|
A--------------------3---------2--|
E------------------------------3--|