Goo Goo Dolls - Stay With You Text Guitar Tab

Learn song with the online tabulature player
-------------------------------------------------------------------------------
                             STAY WITH YOU - Goo Goo Dolls
-------------------------------------------------------------------------------
Tabbed by: Lone Dragon
Email:VLTRUNKS@aol.com
Tuning:Standard

I noticed only a few people were able to tab this song out, so I gave it my shot at it.


  INTRO
e|---------------------------------------------------------------------------|
B|---------------------------------------------------------------------------|
G|----5-5-5------------------------------------------------------------------|2x's
D|----5-5-5--5-5-5--7-7-7--3-3-3---------------------------------------------|
A|----3-3-3--5-5-5--7-7-7--3-3-3---------------------------------------------|
E|-----------3-3-3--5-5-5--1-1-1---------------------------------------------|

e|---------------------------------------------------------------------------|
B|---------------------------------------------------------------------------|
G|--5-5-5-5-5-5--------------------------------------------------------------|
D|--5-5-5-5-5-5--5-5-5-5-5-5--3--3--3--3-------------------------------------|
A|--3-3-3-3-3-3--5-5-5-5-5-5--3--3--3--3-------------------------------------|
E|---------------3-3-3-3-3-3--1--1--1--1-------------------------------------|

  VERSE
e|--3--------3--3---------------7--------7-----------------------------------|2x's
B|--1-------1--1---------------8-8-10~--8-8----------------------------------|
G|--2------2------------------9--------9---7~--------------------------------|
D|---------------------------------------------------------------------------|
A|---------------------------------------------------------------------------|
E|---------------------------------------------------------------------------|

   Then the pre-chrous part
e|---------------------------------------------------------------------------|
B|---------------------------------------------------------------------------|
G|---------------------------------------------------------------------------|
D|--5-5-5-5-5-5-5-5-5-5-5-5--------------------------------------------------|
A|--5-5-5-5-5-5-5-5-5-5-5-5--------------------------------------------------|
E|--3-3-3-3-3-3-3-3-3-3-3-3--------------------------------------------------|
  PM*******************

  CHORUS
e|---------------------------------------------------------------------------|
B|---------------------------------------------------------------------------|
G|----5-5-5------------------------------------------------------------------|3x's
D|----5-5-5--5-5-5--7-7-7--3-3-3---------------------------------------------|
A|----3-3-3--5-5-5--7-7-7--3-3-3---------------------------------------------|
E|-----------3-3-3--5-5-5--1-1-1---------------------------------------------|

  At: I'll stay with you!!!!
e|---------------------------------------------------------------------------|
B|---------------------------------------------------------------------------|
G|--5-5-5-5-5-5--------------------------------------------------------------|
D|--5-5-5-5-5-5--5-5-5-5-5-5--3--3--3--3-------------------------------------|
A|--3-3-3-3-3-3--5-5-5-5-5-5--3--3--3--3-------------------------------------|
E|---------------3-3-3-3-3-3--1--1--1--1-------------------------------------|

  BRIDGE
e|---------------------------------------------------------------------------|
B|---------------------------------------------------------------------------|
G|---------------------------------------5-----------------------------------|
D|--2----3----2---5----2---5-------------5-----------------------------------|
A|--2----3----2---5----2---5-------------3-----------------------------------|
E|--0----1----0---3----0---3-------------------------------------------------|


  Build Up (Keyboard Part
e|---------------------------------------------------------------------------|
B|----6~-5~------------------------------------------------------------------|
G|----------5~---------------------------------------------------------------|
D|---------------------------------------------------------------------------|
A|---------------------------------------------------------------------------|
E|---------------------------------------------------------------------------|

e|---------------------------------------------------------------------------|
B|---------------------------------------------------------------------------|
G|---------------------------------------------------------------------------|
D|--2----5----------3-3-3-3-3-3-3--------------------------------------------|
A|--2----5----------3-3-3-3-3-3-3--------------------------------------------|
E|--0----3----------1-1-1-1-1-1-1--------------------------------------------|

Now just play the chorus rest of the song!


| /  slide up
| \  slide down
| h  hammer-on
| p  pull-off
| ~  vibrato
| +  harmonic
| x  Mute note