Goo Goo Dolls - There You Are Text Guitar Tab

Learn the song with the online tablature player
#----------------------------------PLEASE NOTE--------------------------------#
#This file is the author's own work and represents their interpretation of the#
#song. You may only use this file for private study, scholarship, or research.#
#-----------------------------------------------------------------------------#


There You Are by the Goo Goo Dolls
(tabbed by goo@soong.heinous.net)
Goo Goo Dolls Web Site: The World of Goo
http://soong.heinous.net/~goo/index.html

Intro:

(riff 1)
e-------------------|------------------
B---7---7-4-5-4---7-|---7-5-4-5-4------
G---4---4-4-4-4---4-|---4-4-4-4-4------
D-------------------|------------------
A-------------------|------------------
E-------------------|------------------
    +   +   +   +     +   +   +   +
(play 5 times)

E5-B5-G#5-F#5 
(2x, along with riff 1, come in on second playing of riff 1)

(verse)
G#5         B5            E5         B5
Give me a reason now that I can understand 
G#5           B5              E5            B5
I pick up the pieces now and put 'em in my hand

(bridge 1)
F#5               B5            
I've been up and down for you 
      E5         B5
My suffering extreme 
F#5          B5         
I fell on my face for you
    E5             B5    
Now I know what it means

(bridge 2)
riff2:
e-----------------------------------------------------------------
B-----------------------------------------------------------------
G-----------------------------------------------------------------
D--------------2-2----------------2-2-----------------------------
A----------4-4-----4-4--------4-4-----4-4-------------------------
E------2-2---------------2-2--------------------------------------
And I      self      destruct 

e-----------------------------------------------------------------
B-----------------------------------------------------------------
G-----------------------------------------------------------------
D--------------2-2----------------2-2-----------------------------
A----------4-4-----4-4--------4-4-----4-4-------------------------
E------2-2---------------2-2--------------------------------------
               I close my eyes and then

(chorus)
B5-Bb5-Ab5-F#5
   There      you are 
(riff 1 to finish chorus)
There you are 
You are 
There you are

(verse)
Yeah you can run out west, forget you know my name 
You say you got your shit together, but you ain't got no faith

(bridge 1)
Method in madness 
Now there's madness in my soul 
I'd run from the darkness now 
I've got no place to go

(bridge 2)
And I self destruct 
I close my eyes and then

(chorus)
There you are 
There you are 
You are 
There you are

(solo)

(chorus)
There you are 
There you are 
You are 
There you are
There you are 
There you are

End with E5-Eb5-Db5-B5

This file is copyright goo@soong.heinous.net, 1997. You are 
free to use it for your personal or educational use, but permission must 
be granted to post this transcription. Thank you.