Goo Goo Dolls - You Never Know Text Guitar Tab

Learn song with the online tabulature player
You Never Know
Gutterflower
Music By The Goo Goo Dolls

e-----------------0-----------------------
b----1--1-1-1-1-1--1----1---1-1-1-1-1--3-1
g--0--0---------------0---0---------------  repeat 
d-----------------------------------------
a-----------------------------------------
e-----------------------------------------

another guitar does this

e------------------------------------------
b------------------------------------------
g------------------0----------------1------
d------0--------2--------------2-----------
a---2--------3------------3----------------
e-3----------------------------------------

thats its