Good Charlotte - Bloody Valentine Text Guitar Tab

Learn song with the online tabulature player
Allright, I've seen thoose guys live, so I'm 100% sure about this song (all the other's 
this page are wrong). Please notice that ALL Good Charlotte songs are tuned down a half step!
Ok, let's get this started. The intro goes like this

(Intro)

    Oh my love..... Please don't cry
E#|-1------1-----------------------------|
B#|-3------1---------------------8-------|
G#|-3-(1x)-2-(1x)----------------8-------|
D#|-3------3--------5------------8-------|
A#|-1------3--------5-(1x)-------6-(1x)--|
E#|-1------1--------3--------------------|
You figure out the rest yourself..

(Intro 2x)
Ok, in the cd they do this instrumental, but live the play this
Hard distortion:
E#|-----------------|
B#|-----8-----------|
G#|---8-8-----------|
D#|-8-8-8-----------|
A#|-6-6-6-----------|
E#|-----------------|

(Verse)
Remember to palm mute.
E#|-------------------------------|
B#|-------------------------------|
G#|---------------------8---------|
D#|-8------3------5-----8---------|
A#|-8------3------5-----6-(4x)----|
E#|-6-(4x)-1-(4x)-3-(4x)----------|

(Pre-Chorus)
Remember to palm mute on "The night he died.."
E#|-----------------------------------------|
B#|-----------------------------------------|
G#|-5------8--------------------------------|
D#|-5------8-----------5------3-------------|
A#|-3-(6x)-6-(6x)------5-(4x)-3-(4x)--------|
E#|--------------------3------1-------------|

(Chorus)
"Singin'"
E#|-------------------------------|
B#|-------------------------------|
G#|---------------------8---------|
D#|-8------3------5-----8---------|
A#|-8------3------5-----6-(3x)----|
E#|-6-(3x)-1-(3x)-3-(3x)----------|


(Break/Bridge etc).
"He droped you off I followed him home.."-part
E#|-1------1--------------------------|
B#|-3------1------------8-------------|
G#|-3------3------------8-------------|
D#|-3------2------5-----8-------------|
A#|-1------2------5-----6-(1x)--------|
E#|-1-(1x)-1-(1x)-3-(1x)--------------|
"Cause I'm SO in love with u".
---
---
-8-
-8-
-6-
---

That's all, btw. one of the best songs from the GC, I would wish they made a video for 
cause it's altso a great story.
Any comments, feedback etc. write to me at christian@it-o.dk