Good Charlotte - Broken Hearts Parade Text Guitar Tab

Learn the song with the online tablature player
\ = Slide Down
/ = slide Up
. = palm Mute
> = Let Ring

INTRO

  ... . . .   . . . .   ... . . .   . . . .
E---------------------|---------------------|
B---------------------|---------------------|
G---------------------|---------------------|
D-----------6---------|-----------9---------|
A-444-4-4-4---7-7-7-7-|-777-7-7-7---9-9-9-9-|
E-------------5-5-5-5-|-------------7-7-7-7-|
  ... . . .   . . . .   ... . . .   . . . .

  ... . . .   . . . .   ... . . .
E---------------------|-------------------|
B---------------------|-------------------|
G---------------------|-------------------|
D-----------6---------|-----------9-------|
A-444-4-4-4---7-7-7-7-|-777-7-7-7---9-9-9-|
E-------------5-5-5-5-|-------------7-7-7-|
  ... . . .   . . . .   ... . . .

BRIDGE 1

E---------------------------|---------------------------|
B---------------------------|---------------------------|  x2
G-66-66-6-6-----------------|-99-99-9-9-----------------|
D-66-66-6-6-7-7-7-7-7-7-7-7-|-99-99-9-9-9-9-9-9-9-9-9-9-|
A-44-44-4-4-7-7-7-7-7-7-7-7-|-77-77-7-7-9-9-9-9-9-9-9-9-|
E-----------5-5-5-5-5-5-5-5-|-----------7-7-7-7-7-7-7-7-|

VERSE 1

Guitar 1                        Guitar 3
E----------------------|       |--------------------2-|
B----------------------|  x4   |------------------4---|
G----------------------|       |----------------------|
D-----6----6---------6-|       |----------------------|
A-4-4--4-4---4-4-4-4---|       |----------------------|
E----------------------|       |----------------------|

Guitar 2
  . . . . . . . . . . . . . . .    . . . . . . . . . . . . . . . .
E--------------------------------|---------------------------------|
B--------------------------------|---------------------------------|
G--------------------------------|---------------------------------|
D-6-6-6-6-6-6-6------------------|-9-9-9-9-9-9-9-9-----------------|
A-4-4-4-4-4-4-4-7-7-7-7-7-7-7-7--|-7-7-7-7-7-7-7-7-9-9-9-9-9-9-9-9-|
E---------------5-5-5-5-5-5-5-5--|-----------------7-7-7-7-7-7-7-7-|
  . . . . . . . . . . . . . . .    . . . . . . . . . . . . . . . .

  . . . . . . . . . . . . . . . .   . . . . . . . .
E---------------------------------|---------------------------------|
B---------------------------------|---------------------------------|
G---------------------------------|---------------------------------|
D-6-6-6-6-6-6-6-6-----------------|-9-9-9-9-9-9-9-9-----------------|
A-4-4-4-4-4-4-4-4-7-7-7-7-7-7-7-7-|-7-7-7-7-7-7-7-7-6-6-6-6-6-6-6-6-|
E-----------------5-5-5-5-5-5-5-5-|-----------------4-4-4-4-4-4-4-4-|
  . . . . . . . . . . . . . . . .   . . . . . . . .

CHORUS

E---------------------------------|---------------------------------|
B---------------------------------|---------------------------------|  x3
G---------------------------------|-4-4-4-4-4-4-4-4-----------------|
D-7-7-7-7-7-7-7-7-2-2-2-2-2-2-2-2-|-4-4-4-4-4-4-4-4-7-7-7-7-7-7-7-7-|
A-7-7-7-7-7-7-7-7-2-2-2-2-2-2-2-2-|-2-2-2-2-2-2-2-2-7-7-7-7-7-7-7-7-|
E-5-5-5-5-5-5-5-5-0-0-0-0-0-0-0-0-|-----------------5-5-5-5-5-5-5-5-|

E---------------------------------|-------------------|
B---------------------------------|-------------------|
G---------------------------------|-4-4-4-4-4-4-4-4---|
D-7-7-7-7-7-7-7-7-2-2-2-2-2-2-2-2-|-4-4-4-4-4-4-4-4-7-|
A-7-7-7-7-7-7-7-7-2-2-2-2-2-2-2-2-|-2-2-2-2-2-2-2-2-7-|
E-5-5-5-5-5-5-5-5-0-0-0-0-0-0-0-0-|-----------------5-|

<

 >

VERSE 2

Guitar 1
E----------------------|
B----------------------|  x4
G----------------------|
D-----6----6---------6-|
A-4-4--4-4---4-4-4-4---|
E----------------------|

Guitar 2
  . . . . . . . . . . . . . . .   . . . . . . . . . . . . . . . .
E-------------------------------|---------------------------------|
B-------------------------------|---------------------------------|
G-------------------------------|---------------------------------|
D-6-6-6-6-6-6-6-----------------|-9-9-9-9-9-9-9-9-----------------|
A-4-4-4-4-4-4-4-7-7-7-7-7-7-7-7-|-7-7-7-7-7-7-7-7-9-9-9-9-9-9-9-9-|
E---------------5-5-5-5-5-5-5-5-|-----------------7-7-7-7-7-7-7-7-|
  . . . . . . . . . . . . . . .   . . . . . . . . . . . . . . . .

  . . . . . . . . . . . . . . .   . . . . . . . .
E-------------------------------|---------------------------------|
B-------------------------------|---------------------------------|
G-------------------------------|---------------------------------|
D-6-6-6-6-6-6-6-----------------|-9-9-9-9-9-9-9-9-----------------|
A-4-4-4-4-4-4-4-7-7-7-7-7-7-7-7-|-7-7-7-7-7-7-7-7-6-6-6-6-6-6-6-6-|
E---------------5-5-5-5-5-5-5-5-|-----------------4-4-4-4-4-4-4-4-|
  . . . . . . . . . . . . . . .   . . . . . . . .

Guitar 3
  .  .  .  .  .  .   .  .  .  .  .  .  .   .  .  .  .  .  .  .
E---------------------------------------------------------------|
B-14-14-14-14-14-14------------------------12-12-12-12-12-12-12-|  x2
G--------------------13-13-13-13-13-13-13-----------------------|
D---------------------------------------------------------------|
A---------------------------------------------------------------|
E---------------------------------------------------------------|
  .  .  .  .  .  .   .  .  .  .  .  .  .   .  .  .  .  .  .  .

<
 
  >

BRIDGE

E----------------------|----------------------|----------------------|
B----------------------|----------------------|----------------------|
G------66-66-222-4-4-4-|------66-66-222-------|------66-66-222-4-4-4-|
D-2-22-66-66-222-4-4-4-|-2-22-66-66-222-4-4-4-|-2-22-66-66-222-4-4-4-|
A-2-22-44-44-000-2-2-2-|-2-22-44-44-000-4-4-4-|-2-22-44-44-000-2-2-2-|
E-0-00-----------------|-0-00-----------2-2-2-|-0-00-----------------|

E----------------------------|---------------------------------|
B----------------------------|---------------------------------|
G------66-66-2-2-2-2-2-2-2-2-|---------------------------------|
D-2-22-66-66-2-2-2-2-2-2-2-2-|-6-6-6-6-6-6-6-6-6-6-6-6-6-6-6-6-|
A-2-22-44-44-0-0-0-0-0-0-0-0-|-6-6-6-6-6-6-6-6-6-6-6-6-6-6-6-6-|
E-0-00-----------------------|-4-4-4-4-4-4-4-4-4-4-4-4-4-4-4-4-|

E---------------------|
B---------------------|
G-2>--------6>--------|
D-2>--------6>--------|
A-0>--------4>--------|
E---------------------|

E---------------------------------|---------------|
B---------------------------------|---------------|
G-7-7-7-7-7-7-7-7-6-6-6-6-6-6-6-6-|---------------|
D-7-7-7-7-7-7-7-7-6-6-6-6-6-6-6-6-|-4-4-4-4-4\----|
A-5-5-5-5-5-5-5-5-4-4-4-4-4-4-4-4-|-4-4-4-4-4\----|
E---------------------------------|-2-2-2-2-2\----|

E---------------------------------|-----------------|
B---------------------------------|-----------------|
G-7-7-7-7-7-7-7-7-6-6-6-6-6-6-6-6-|-----------------|
D-7-7-7-7-7-7-7-7-6-6-6-6-6-6-6-6-|-4-4-4-4-4-4-4-4-|
A-5-5-5-5-5-5-5-5-4-4-4-4-4-4-4-4-|-4-4-4-4-4-4-4-4-|
E---------------------------------|-2-2-2-2-2-2-2-2-|

FINAL CHORUS

E---------------------------------|---------------------------------|
B---------------------------------|---------------------------------|  x3
G---------------------------------|-4-4-4-4-4-4-4-4-----------------|
D-7-7-7-7-7-7-7-7-2-2-2-2-2-2-2-2-|-4-4-4-4-4-4-4-4-7-7-7-7-7-7-7-7-|
A-7-7-7-7-7-7-7-7-2-2-2-2-2-2-2-2-|-2-2-2-2-2-2-2-2-7-7-7-7-7-7-7-7-|
E-5-5-5-5-5-5-5-5-0-0-0-0-0-0-0-0-|-----------------5-5-5-5-5-5-5-5-|

E---------------------------------|----------------------------------|
B---------------------------------|----------------------------------|
G---------------------------------|-4-4-4-4-4-4-4-4-4-4-4-4-4-4-4-4>-|
D-7-7-7-7-7-7-7-7-2-2-2-2-2-2-2-2-|-4-4-4-4-4-4-4-4-4-4-4-4-4-4-4-4>-|
A-7-7-7-7-7-7-7-7-2-2-2-2-2-2-2-2-|-2-2-2-2-2-2-2-2-2-2-2-2-2-2-2-2>-|
E-5-5-5-5-5-5-5-5-0-0-0-0-0-0-0-0-|----------------------------------|