Good Charlotte - Change Text Guitar Tab

Learn song with the online tabulature player
CHANGE - Good Charlotte


By:RyanLB4@hotmail.com
the whole song is based on a few riffs

ohhhhh      uhhhhhhh  play this for the verse
e|3-------3-------------------------------------------------------------------|
B|3-------3-------------------------------------------------------------------|
G|0-------0-------------------------------------------------------------------|
D|2-------0-------------------------------------------------------------------|
A|2-------2-------------------------------------------------------------------|
E|--------3-------------------------------------------------------------------|

chorus
e|3-----3--------3------------------------------------------------------------|
B|3-----3--------3------------------------------------------------------------|
G|0-----0--------2------------------------------------------------------------|
D|2-----0--------0------------------------------------------------------------|
A|2-----2--------0------------------------------------------------------------|
E|------3---------------------------------------------------------------------|

listen to the cd fir the timing but thats about it any questons or comments 
email me