Good Old War - Thats Some Dream Text Guitar Tab

Learn song with the online tabulature player
"That's Some Dream" by Good Old War
tabbed by myamoebafriend

Just listen to the song to get the rhythm.

Intro x2
e||--0----0----3----3--||
B||--1----0----3----0--||
G||--0----0----0----0--||
D||--2----2----0----0--||
A||--3----2----2----2--||
E||-------0----3----3--||

Verse x4
e||--0----0----3----3--||
B||--1----0----3----0--||
G||--0----0----0----0--||
D||--2----2----0----0--||
A||--3----2----2----2--||
E||-------0----3----3--||
"There's a time in our lives to start again on writing our parts.
As the story goes on, it's the rule that we remember our lines."

Pre-chorus x1
e||--0----0----3----3----0----0--||
B||--1----1----3----0----1----1--||
G||--2----0----0----0----2----0--||
D||--2----2----0----0----2----2--||
A||--0----3----2----2----0----3--||
E||------------3----3------------||
"I know everyone would want me to say that I'm not afraid to be alone."

Chorus x2
e||--3----2----0--0----0-0-0-0--||
B||--3----3----1--1----1-1-1-3--||
G||--0----2----2--0----0-0-2-2--||
D||--0----0----2--2----2-0-2-0--||
A||--2---------0--0----3-2-0----||
E||--3--------------------------||
"I'm gonna live, I'm alright.
I'm gonna die, it's alright. I'm okay.
I'm gonna live, I'm alright.
I'm gonna die, it's alright. I'm okay."

Verse x4
e||--0----0----3----3--||
B||--1----0----3----0--||
G||--0----0----0----0--||
D||--2----2----0----0--||
A||--3----2----2----2--||
E||-------0----3----3--||
"There's a place in my head that must be called the super motel.
I can stay the whole night and think about the girl in her shell."

Pre-chorus x1
e||--0----0----3----3----0----0--||
B||--1----1----3----0----1----1--||
G||--2----0----0----0----2----0--||
D||--2----2----0----0----2----2--||
A||--0----3----2----2----0----3--||
E||------------3----3------------||
"I know everyone would want me to say that I'm not afraid to be alone."

Chorus x2
e||--3----2----0--0----0-0-0-0--||
B||--3----3----1--1----1-1-1-3--||
G||--0----2----2--0----0-0-2-2--||
D||--0----0----2--2----2-0-2-0--||
A||--2---------0--0----3-2-0----||
E||--3--------------------------||
"I'm gonna live, I'm alright.
I'm gonna die, it's alright. I'm okay.
I'm gonna live, I'm alright.
I'm gonna die, it's alright. I'm okay."

Solo: Rhythm x4
e||--0----0----3----3--||
B||--1----0----3----0--||
G||--0----0----0----0--||
D||--2----2----0----0--||
A||--3----2----2----2--||
E||-------0----3----3--||

Solo: Lead
e||-----------------------------------------------------------------|
B||--------------------7/8-7----------------------------------------|
G||--7/9--7------------------7-9-7/9--7-----------------------------|
D||----------9--7--5~--------------------9--7--5~---7---7/9---5-----|
A||---------------------------------------------------------------7-|
E||-----------------------------------------------------------------|

e||------------------------------------------------7/10-7-----------------------||
B||--------------------7/8-7-------------------------------10-8-7---------------||
G||--7/9--7------------------7-9-7/9--7---------------------------9-7-----------||
D||----------9--7--5~--------------------9--7--5~---------------------10-9--7~~-||
A||-----------------------------------------------------------------------------||
E||-----------------------------------------------------------------------------||

Pre-chorus x1
e||--0----0----3----3----0----0--||
B||--1----1----3----0----1----1--||
G||--2----0----0----0----2----0--||
D||--2----2----0----0----2----2--||
A||--0----3----2----2----0----3--||
E||------------3----3------------||
"I know everyone would want me to say that I'm not afraid to be alone."

Chorus x2
e||--3----2----0--0----0-0-0-0--||
B||--3----3----1--1----1-1-1-3--||
G||--0----2----2--0----0-0-2-2--||
D||--0----0----2--2----2-0-2-0--||
A||--2---------0--0----3-2-0----||
E||--3--------------------------||
"I'm gonna live, I'm alright.
I'm gonna die, it's alright. I'm okay.
I'm gonna live, I'm alright.
I'm gonna die, it's alright. I'm okay."

Chorus Outro x1
e||--3----2----0--0----0~-||
B||--3----3----1--1----1~-||
G||--0----2----2--0----0~-||
D||--0----0----2--2----2~-||
A||--2---------0--0----3~-||
E||--3--------------------||
"I'm gonna live, I'm alright.
I'm gonna die, it's alright. I'm okay.
That's some dream."