Googoosh - Gol Bi Goldoon Text Guitar Tab

Learn song with the online tabulature player
hi,
I'm not shure about the timming but with a little patience, you'll get it.


|----------------|----------------|----------------|----------------|
|--------0-1-1---|3-3-----3-------|1--0----0-------|----------------|
|2-----2-------2-|----------------|------2----0----|2-----0---------|
|----------------|----------------|----------------|--------3---2---|
|----------------|----------------|----------------|----------------|
|----------------|----------------|----------------|----------------|

|----------------|----------------|----------------|----------------|
|--------0-1-1---|3-3-----3-------|1--0---------0-1|----------------|
|2-----2-------2-|----------------|------2-0-2-----|2---------------|
|----------------|----------------|----------------|----------------|
|----------------|----------------|----------------|----------------|
|----------------|----------------|----------------|----------------|

enjoy.

e-mail : a9d7g5@yahoo.com