Goot - I Love Your Existence Text Guitar Tab

Learn song with the online tabulature player
so i took what the guy had before and finished it. well to the best of my ability. 
its an easy song tho.



Intro:
e|-----3-----------3--------------3------------3---------------------------|
B|--------3-----------3---------------3------------3-----------------------|
G|-------------------------------------------------------------------------|
D|------------2-------------0----------------------------------------------|
A|-3---------------------------------------3-------------------------------|
E|-------------------------------------------------------------------------|

Verse1:
perfection is defined when your heart beats next to mine
e|---3--------3-----------------3-------------------3-------3--------------|
B|---3--------3-----------------3-------------------3-------3--------------|
G|-------------------------------------------------------------------------|
D|---x--------x-----------------2-------------------x-------x--------------|
A|---2--------3-------------------------------------3-------2--------------|
E|---x--------x-----------------x-------------------x-------x--------------|

time stands still for us        my hand in your hair and yours on my chest
e|-3----3-------------3-----3---3----------3-------------3------------3----|
B|-3----3-------------3-----3---3----------3-------------3------------3----|
G|-------------------------------------------------------------------------|
D|-x----x-------------2-----x---x------------------------2------------x----|
A|-2----3-------------------3---2----------3--------------------------3----|
E|-x----x-------------x-----x---x----------x-------------x------------x----|

moments with you are my lifes best...
e|-3-----3-----------3---------3-------------------------------------------|
B|-3-----3-----------3---------3-------------------------------------------|
G|-------------------------------------------------------------------------|
D|-x-----x-----------2---------x-------------------------------------------|
A|-2-----3---------------------3-------------------------------------------|
E|-x-----x-----------x---------x-------------------------------------------|

Prechorus:
we crossed paths for a reason  the planets aligned in that paticular season
e|--3-------------3------------3------------3------------------------------|
B|--3-------------3------------3------------3------------------------------|
G|-------------------------------------------------------------------------|
D|--2----------------------------------------------------------------------|
A|--3-------------2------------2------------x------------------------------|
E|--x-------------x------------3------------2------------------------------|

its clear to me that we'll eventually be... inseperable
e|-3------3----------------3-------------3---------------------------------|
B|-3------3----------------3-------------3---------------------------------|
G|-------------------------------------------------------------------------|
D|-2-----------------------------------------------------------------------|
A|-3------2----------------2-----------------------------------------------|
E|-x------x----------------3-------------2---------------------------------|

Chorus:
   i love your existence i cant get enough i love your existence i cant..
e|-3---3-------3---------3-----------------3----3------3----------3-----|
B|-3---3-------3---------3-----------------3----3------3----------3-----|
G|----------------------------------------------------------------------|
D|-2---------------------2-----------------2----------------------2-----|
A|-2---3-------2---------------------------2----3------2----------------|
E|-------------3---------------------------------------3----------------|

Verse2:
your song  is sung    in your   beautiful           voice
e|---3--------3-----------------3-------------------3----------------------|
B|---3--------3-----------------3-------------------3----------------------|
G|-------------------------------------------------------------------------|
D|---x--------x-----------------2-------------------x----------------------|
A|---2--------3-------------------------------------3----------------------|
E|---x--------x-----------------x-------------------x----------------------|

    My senses rush   cause they have   no   other   choice
e|---3--------3-----------------3-------------------3----------------------|
B|---3--------3-----------------3-------------------3----------------------|
G|-------------------------------------------------------------------------|
D|---x--------x-----------------2-------------------x----------------------|
A|---2--------3-------------------------------------3----------------------|
E|---x--------x-----------------x-------------------x----------------------|

   I breathe you in, and    I   see through  your   eyes.
e|---3-----------3--------------3-------------------3----------------------|
B|---3-----------3--------------3-------------------3----------------------|
G|-------------------------------------------------------------------------|
D|---x-----------x--------------2-------------------x----------------------|
A|---2-----------3----------------------------------3----------------------|
E|---x-----------x--------------x-------------------x----------------------|

    You are an   angel in a     beautiful        disguise.
e|---3-----------3--------------3-------------------3----------------------|
B|---3-----------3--------------3-------------------3----------------------|
G|-------------------------------------------------------------------------|
D|---x-----------x--------------2-------------------x----------------------|
A|---2-----------3----------------------------------3----------------------|
E|---x-----------x--------------x-------------------x----------------------|

Prechorus:
we crossed paths for a reason  the planets aligned in that paticular season
e|--3-------------3------------3------------3------------------------------|
B|--3-------------3------------3------------3------------------------------|
G|-------------------------------------------------------------------------|
D|--2----------------------------------------------------------------------|
A|--3-------------2------------2------------x------------------------------|
E|--x-------------x------------3------------2------------------------------|

its clear to me that we'll eventually be... inseperable
e|-3------3----------------3-------------3---------------------------------|
B|-3------3----------------3-------------3---------------------------------|
G|-------------------------------------------------------------------------|
D|-2-----------------------------------------------------------------------|
A|-3------2----------------2-----------------------------------------------|
E|-x------x----------------3-------------2---------------------------------|

Chorus:
   i love your existence i cant get enough i love your existence i cant..
e|-3---3-------3---------3-----------------3----3------3----------3-----|
B|-3---3-------3---------3-----------------3----3------3----------3-----|
G|----------------------------------------------------------------------|
D|-2---------------------2-----------------2----------------------2-----|
A|-2---3-------2---------------------------2----3------2----------------|
E|-------------3---------------------------------------3----------------|

repeat chorus to end and fade