Gotthard - Father Is That Enough Text Guitar Tab

Learn song with the online tabulature player
----------------------------------------------------------------------------
                      FATHER IS THAT ENOUGH - Gotthard
----------------------------------------------------------------------------

Tabbed by: mickael
Email: micki9a7@hotmail.com

Tuning: D - G - D - C

e|----------------0h2---------------------------------0---------------------|
B|-----------3------------3----------------------3----------3---------------|
G|-------2---------------------2------------0--------------------0----------|
D|---0----------------------------------------------------------------------|
A|--------------------------------------------------------------------------|
E|------------------------------------3-------------------------------------|

e|----------------------3---------------------------------------------------|
B|----------------3---------------------------------------------------------|
G|---------0----------------------------------------------------------------|
D|--------------------------------------------------------------------------|
A|--------------------------------------------------------------------------|
E|---3----------------------------------------------------------------------|

                           TO PLAY THAT TWICE!!!

(h  hammer-on)