Gov't Mule - My Separate Reality Text Guitar Tab

Learn song with the online tabulature player
Band/Artist: Gov’t Mule
Song Title: My Separate Reality
Album Title: Deja Voodoo
Part: Solos/Lead parts

Tablature legend:

|  h = hammer on
|  p = pull off
|  b = full bend
|  r = release bend
|  _ =  hold bend
|  ~ = vibrato

 (Solo 1)

e|-------------------------------------------------------------------|
B|-------------------------------------------------------------------|
G|-17b_________r-------------17--------------------------------------|
D|-------------------------------17--17~-----------15--17------------|
A|---------------------------------------------------------17--17~---|
E|-------------------------------------------------------------------|


------------------------------------|
------------------------------------|
------15--17--17brb_____r-----------|
------------------------------------|
------------------------------------|
------------------------------------|

(Solo 2)

e|-------------------------------------------------------------------|
B|-------------------------------------------------------------------|
G|-17b_________r-------------17--------------------------------------|
D|-------------------------------17--17~-----------15--17------------|
A|---------------------------------------------------------17--17~---|
E|-------------------------------------------------------------------|


------------------------------------|
------------------------------------|
------15--17--17brb_____r-----------|
------------------------------------|
------------------------------------|
------------------------------------|

(Solo 3/lead parts during verse)

e|--------------------------------------------------------------------|
B|--18br------18brb~~---------------------18--------------------------|
G|-----------------------------------17b------17brp15-----------------|
D|--------------------------------------------------------------------|
A|--------------------------------------------------------------------|
E|--------------------------------------------------------------------|


--------18b----18--15---15~--15~----|
----15------------------------------|
------------------------------------|
------------------------------------|
------------------------------------|
------------------------------------|