Gowan - Criminal Mind Text Guitar Tab

Learn song with the online tabulature player
#----------------------------------PLEASE NOTE---------------------------------#
#This file is the author's own work and represents their interpretation of the #
#song. You may only use this file for private study, scholarship, or research. #
#------------------------------------------------------------------------------##

                              CRIMINAL MIND (INTRO)
                              As recorded by Gowan


Gtr I (E A D G B E) - 'Untitled'

 4/4
  Gtr I
|----------17----15-------------|
|-------15----18----15----15----|
|----15----------------17-------|
|-17----------------------------|
|-------------------------------|
|-------------------------------|


|----------17-------------------------------|
|-------15----18-15----15h18p15-------------|
|----15-------------17----------17-15-17----|
|-17----------------------------------------|
|-------------------------------------------|
|-------------------------------------------|


|------------------------------------------------|
|------------------------------------------------|
|-------14-15-17-15-15-14--14-15-17-/19----------|
|-15-17---------------------------------17-17----|
|------------------------------------------------|
|------------------------------------------------|


|-----------------------------|
|-----------------------------|
|-------17-17-15-14-----------|
|-15h17-------------15-/17----|
|-----------------------------|
|-----------------------------|