Graham Colton - Runaway Text Guitar Tab

Learn song with the online tabulature player
I looked everywhere for a correct tab of this song and couldn't find it so I decided to 
it a shot. It's not 100% correct. He uses alot of variations of G and D chords in his 
Listen to it for the strum pattern, it's not that hard.

intro/chorus:
|----3--------2--------0--------2--------3--------3----|
|----3--------3--------3--------3--------3--------3----|
|----0--------2--------2--------2--------0--------0----|
|----0-----------------------------------2--------2----|
|----2-----------------------------------2--------3----|
|----3-------------------------------------------------|

verse:
|----3--------2h4-------3--------3----|
|----3--------3-3-------3--------3----|
|----0--------2-2-------0--------0----|
|----0------------------2--------2----|
|----2------------------2--------3----|
|----3--------------------------------|

Bridge:
|----2------3----|
|----3------3----|
|----2------0----|
|-----------3----|
|-----------3----|
|----------------|

end on G