Gram Rabbit - Dirty Horse Text Guitar Tab

Learn song with the online tabulature player
Throughout the whole song just play either these chords:

|--------------|
|--------------|
|--4--3--2-----|
|--5--4--3--2--|
|--5--4--3--2--|
|--3--2--1-----|
Or these:
|--------------|
|--------------|
|--12--11--10--|
|--12--11--10-2|
|--10--9---8--2|
|--------------|

It's pretty darn simple, but if you have any questions my email is:
a.mangold@sbcglobal.net  Myspace.com/applecheeks