Grandaddy - El Caminos In The West Text Guitar Tab

Learn song with the online tabulature player
---------------------------------------------------------------------
                EL CAMINOS IN THE WEST - Grandaddy
---------------------------------------------------------------------
Tabbed By : Starlo

INTRO
G|----------------|----------------|----------------|-----------------|
D|----------------|----------------|----------------|-----------------|
A|---------------3|-3-3-3-3-3-3-3-3|---------------3|-3-3-3-3-3-3-3-3-|
E|-3-3-3-3-3-3-3--|----------------|-3-3-3-3-3-3-3--|-----------------|

G|----------------|----------------|----------------|-----------------|
D|----------------|-------------0-0|-1-1-1-1-1-1-1-3|-3-3-3-3-3-3-----|
A|---------------1|-1-1-1-1-1-1----|----------------|-------------3-3-|
E|-1-1-1-1-1-1-1--|----------------|----------------|-----------------|

G|----------------|----------------|
D|-5-5-5-5-5-5-5-5|----------------|
A|----------------|----------------|
E|----------------|----------------|

VERSE
G|----------------|----------------|----------------|-----------------|
D|-5-5-5-5-5-5-5-2|-2-2-2-2-2-2-2-2|---------------5|-5-5-5-5-5-5-5-5-|
A|----------------|----------------|-2-2-2-2-2-2-2--|-----------------|
E|----------------|----------------|----------------|-----------------|

G|----------------|----------------|----------------|-----------------|
D|----------------|----------------|----------------|-----------------|
A|-3-3-3-3-3-3-3-3|----------------|-3-3-3-3-3-3-3-3|-5-5-5-5-5-5-5-5-|
E|----------------|-5-5-5-5-5-5-5-5|----------------|-----------------|
                                                     (      X3       )
G|----------------|----------------|----------------|-----------------|
D|-5-5-5-5-5-5-5-2|-2-2-2-2-2-2-2-2|---------------5|-5-5-5-5-5-5-5---|
A|----------------|----------------|-2-2-2-2-2-2-2--|-----------------|
E|----------------|----------------|----------------|-----------------|

G|----------------|----------------|----------------|-----------------|
D|----------------|----------------|----------------|-----------------|
A|-3-3-3-3-3-3-3-3|----------------|-3-3-3-3-3-3-3-3|-5-5-5-5-5-5-5-5-|
E|----------------|-5-5-5-5-5-5-5-5|----------------|-----------------|
                                                     (      X3       )
CHORUS
G|----------------|----------------|----------------|-----------------|
D|----------------|-------------4-4|----------------|-----------------|
A|----------------|-5-5-5-5-5-5----|---------------2|-----------------|
E|-5-5-5-5-5-5-5-0|----------------|-3-3-3-3-3-3-3--|-0-0-0-0-0-0-3-0-|

G|----------------|----------------|----------------|-----------------|
D|----------------|-------------4-4|----------------|-----------------|
A|----------------|-5-5-5-5-5-5----|----------------|-----------------|
E|-5-5-5-5-5-5-5-0|----------------|-3-3-3-3-3-3-3-3|-3-3-3-3-3-3-3-3-|

G|----------------|----------------|----------------|-----------------|
D|----------------|-------------4-4|----------------|-----------------|
A|----------------|-5-5-5-5-5-5----|---------------2|-----------------|
E|-5-5-5-5-5-5-5-0|----------------|-3-3-3-3-3-3-3--|-0-0-0-0-0-0-3-0-|

G|----------------|----------------|
D|----------------|----------------|
A|----------------|-5-5-5-5-5-5-5-5|
E|-5-5-5-5-5-5-5-0|----------------|

REPEAT ALL

ENDING
G|----------------|----------------|----------------|-----------------|
D|----------------|----------------|----------------|-----------------|
A|---------------3|-3-3-3-3-3-3-3-3|---------------3|-3-3-3-3-3-3-3-3-|
E|-3-3-3-3-3-3-3--|----------------|-3-3-3-3-3-3-3--|-----------------|

G|----------------|----------------|----------------|-----------------|--
D|----------------|-------------0-0|-1-1-1-1-1-1-1-3|-3-3-3-3-3-3-3-3-|-5
A|---------------1|-1-1-1-1-1-1----|----------------|-----------------|--
E|-1-1-1-1-1-1-1--|----------------|----------------|-----------------|--

END