Grass Roots - Live For Today Text Guitar Tab

Learn song with the online tabulature player
-------------------------------------------------------------------------------
			 LIVE FOR TODAY - GRASSROOTS
-------------------------------------------------------------------------------

Tabbed By : James Ryan
http://world-according-to-jim.blogspot.com/
Tuning: Standard

INTRO
G|--------------------------------------|
D|--------------------------------------|
A|--4----7----4----7----4-----7-7-------|
E|--------------------------------------|

VERSE
G|-------------------------------------------------------|
D|-------------------------------------------------------|
A|--4-----4-4----7-----7-7----(4)-LAST TIME LET RING-----|
E|------4------------7-----------------------------------|

CHOURS
G|---------------------------------------------------------------------------|
D|---------------------------------------------------------------------------|
A|-4--4--4-4-4-4---------------4--4--4-4-4-4---------------------------------|
E|---------------4--4--4-4-4-4----------------4--4--4-4-4-4--5--5--5-5-5-5---|

G|-------------------------------------------------------------------|
D|-------------------------------------------------------------------|
A|-2-2--2-2-2-2--4--4--4-4-4-4-----------------4-----7-----4-----7---|
E|------------------------------4--4--4-4-4-4------------------------|

BRIDGE
 TEMPO SLOWS DOWN                      SPEEDS UP REPEAT THIS   BACK INTO CHORUS
G|-----------------------------------|----------------------|--------------------|
D|-----------------------------------|----------------------|--------------------|
A|-4-----7-----4-----7-----4-----7---|--4----4-4---7----7-7-|--(4-4-4-4-5-6-7)---|
E|-----------------------------------|-----4----------7-----|--------------------|