Grass Roots - Temptation Eyes Text Guitar Tab

Learn song with the online tabulature player
Temptation Eyes - Grass Roots

Tabbed By: born21239
e-mail: bass21239@gmail.com

Tuning: EADG

0:00
G|------------|------------|------------|-------------|
D|-8--------8-|-6------8-6-|-4------6-4-|-3----3--3/--|
A|--------8---|------------|------------|-------------|
E|------------|------------|------------|-------------|

0:08
G|------------|------------|------------|------8h10--8h10--|
D|-8--------8-|-6------8-6-|-4------6-4-|-3----------------|
A|--------8---|------------|------------|------------------|
E|------------|------------|------------|------------------|

0:15
G|----------------|----------------|-------------|--------------|
D|-8--8---8---8---|-6--6---6---6---|-5--5--5--5--|-4--4--3--3/7-|
A|------8---8---8-|------6---6---6-|-------------|--------------|
E|----------------|----------------|-------------|--------------|

0:22
G|----------------|--------------|-------------|-------------|
D|-8--8---8---8---|-6--6--6--6---|-5--5--5--5--|-4--4--3--3--|
A|------8---8---8-|------------6-|-------------|-------------|
E|----------------|--------------|-------------|-------------|

0:29
G|----------------|-----------------|-----------------|-----------------|
D|-4--4-4-4-4-4-4-|-6-6-6-6-6-6-6-6-|-6-6-6-6-6-6-6-6-|-7-7-7-7-7-7-7-7-|
A|----------------|-----------------|-----------------|-----------------|
E|----------------|-----------------|-----------------|-----------------|

0:36
G|--------------|--------------|--------------|--------------|
D|-8---8-8-8--8-|-8---8-8-8----|-8---8-8-8----|-8---8-8-8--8-|
A|--------------|------------8-|------------8-|--------------|
E|--------------|--------------|--------------|--------------|

0:43
G|--------------|--------------|----------------|-----------------|
D|-8---8-8-8----|-8---8-8-8--8-|----------------|-----------5-6-7-|
A|------------8-|--------------|-6--6-6-6-5-6-7-|-8-8-8-8-8-------|
E|--------------|--------------|----------------|-----------------|

0:50
G|------------|------------|------------|-------------|
D|-8--------8-|-6------8-6-|-4------6-4-|-3----3--3/--|
A|--------8---|------------|------------|-------------|
E|------------|------------|------------|-------------|

0:58
G|------------|------------|------------|------3/10--8h10--|
D|-8--------8-|-6------8-6-|-4------6-4-|-3----------------|
A|--------8---|------------|------------|------------------|
E|------------|------------|------------|------------------|

1:05
G|----------------|--------------|-------------|--------------|
D|-8--8---8---8---|-6--6--6--6---|-5--5--5--5--|-4--4--3--3/7-|
A|------8---8---8-|------------6-|-------------|--------------|
E|----------------|--------------|-------------|--------------|

1:12
G|----------------|--------------|-------------|--------------|
D|-8--8---8---8---|-6--6--6--6---|-5--5--5--5--|-4--4--3--3-3-|
A|------8---8---8-|------------6-|-------------|--------------|
E|----------------|--------------|-------------|--------------|

1:19
G|-----------------|-----------------|-----------------|-----------------|
D|-4-4-4-4-4-4-4-4-|-6-6-6-6-6-6-6-6-|-6-6-6-6-6-6-6-6-|-7-7-7-7-7-7-7-7-|
A|-----------------|-----------------|-----------------|-----------------|
E|-----------------|-----------------|-----------------|-----------------|

1:26
G|--------------|--------------|--------------|--------------|
D|-8---8-8-8--8-|-8---8-8-8--8-|-8---8-8-8--8-|-8---8-8-8--8-|
A|--------------|--------------|--------------|--------------|
E|--------------|--------------|--------------|--------------|

1:33
G|--------------|--------------|---------8-------|---------10-------|
D|-8---8-8-8--8-|-8---8-8-8--8-|-------5-----5---|---6-7-8------6-7-|
A|--------------|--------------|-6-7-8-----6---6-|-8----------8-----|
E|--------------|--------------|-----------------|------------------|

1:40
G|--------------|--------------|-------------|--------------|
D|-8--8--8--8---|-6--6--6--6---|-5--5--5--5--|-4--4--3--3/7-|
A|------------8-|------------6-|-------------|--------------|
E|--------------|--------------|-------------|--------------|

1:47
G|----------------|--------------|-------------|--------------|
D|-8--8---8---8---|-6--6--6--6---|-5--5--5--5--|-4--4--3--3-3-|
A|------8---8---8-|------------6-|-------------|--------------|
E|----------------|--------------|-------------|--------------|

1:54
G|-----------------|-----------------|-----------------|-----------------|
D|-4-4-4-4-4-4-4-4-|-6-6-6-6-6-6-6-6-|-6-6-6-6-6-6-6-6-|-7-7-7-7-7-7-7-7-|
A|-----------------|-----------------|-----------------|-----------------|
E|-----------------|-----------------|-----------------|-----------------|

2:01
G|--------------|--------------|--------------|--------------|
D|-8---8-8-8--8-|-8---8-8-8--8-|-8---8-8-8--8-|-8---8-8-8--8-|
A|--------------|--------------|--------------|--------------|
E|--------------|--------------|--------------|--------------|

2:08
G|--------------|--------------|-8-7-5-----------|----------10-------|
D|-8---8-8-8----|-8---8-8-8--8-|-----------5-7---|------7-8------6-7-|
A|------------8-|--------------|-------6-8-----6-|-8-10--------8-----|
E|--------------|--------------|-----------------|-------------------|

2:15
G|--------------|--------------|----------------|----------------|
D|-8--8--8--8---|-8--8--8-8--8-|-8--8---8-8---8-|-8--8---8-8---8-|
A|------------8-|--------------|------8-----8---|------8-----8---|
E|--------------|--------------|----------------|----------------|

2:23 (begin fade out)
G|---------------|---------------|-------------|----10--------|
D|-8--8---8-8--8-|-8--8---8-8--8-|-------5--8--|-7--------6---|
A|------8--------|------8--------|-6--8--------|-------8----8-|
E|---------------|---------------|-------------|--------------|

2:29 (repeat and continue fade out)
G|----------------|
D|-8--8---8---8-8-|
A|------8---8-----|
E|----------------|