Grateful Dead - Casey Jones Text Guitar Tab

Learn song with the online tabulature player
-------------------------------------------------------------------------------
                             Casey Jones- Grateful Dead
-------------------------------------------------------------------------------

email. a.colavolpe@sbcglobal.net

sum one please tab this halloween by marilyn manson, mr. crowley by cradle of filth,The 
Kills Farmers by anti-flag thanks all for guitar

Intro
e|-----8-------------8-------3-------------------------|
B|-----8p10----------8-------5p5-----------------------|
G|------------------------------------5-----2----------|
D|------------------------------------------------3----|
A|-----------------------------------------------------|
E|-----------------------------------------------------|

e|----------------------------------|
B|----------------------------------|
G|--------------------5----5--------|
D|(3)----/7-------------------------|
A|----------------------------------|
E|----------------------------------|


Chorus (Driving that train)

    Driving that train         High on cocaine          casey jones u better
e|--------------0------------------------------------------------------------|
B|-1---3----4--------------3----1---------------------------1--4p3---------1-|
G|----------------------------------2p0----------------2-------------0--2----|
D|---------------------------------------3-----------------------------------|
A|---------------------------------------------------------------------------|
E|---------------------------------------------------------------------------|

 watch your speed         truble ahead           trouble behind
e|-------0-----------------------0--------------------------------|
B|------------1---------1--3--4-----------------3-----1-----------|
G|-2------------------------------------------------------2p0-----|
D|-------------------------------------------------------------3--|
A|----------------------------------------------------------------|
E|----------------------------------------------------------------|

and you know that notion    just crossed my mind
e|-------------------------------------------0---------|
B|------1--3--1-----1------------1----1------------3p1-|
G|-2--------------2---------2--------------------------|
D|-----------------------------------------------------|
A|-----------------------------------------------------|
E|-----------------------------------------------------|


VERSE
e|--0--0--0----------2-2-2-2-------------------------------------------|
B|-----------1--------------------1--1----1------1---------0--3--0-----|
G|-------------------------------------1------2-----2---------------0--|
D|---------------------------------------------------------------------|
A|---------------------------------------------------------------------|
E|---------------------------------------------------------------------|

e|---0-0-0--------------2-2-2-2------1----(1)----3-1-0------0----|
B|---------3--1--0---------------3-3---------------------3-----3-|
G|---------------------------------------------------------------|
D|---------------------------------------------------------------|
A|---------------------------------------------------------------|
E|---------------------------------------------------------------|


e|-----------------1-----1--0--------------------------|
B|--1-3-1-0-----------3--------3----1--3--1--0---------|
G|----------0-----------------------------------0------|
D|-----------------------------------------------------|
A|-----------------------------------------------------|
E|-----------------------------------------------------|

repeat chorus

solo
e|---------------------------------------------------------------------------|
B|---------------------------------------------------------------------------|
G|---------------5---------------7-------------------------------------------|
D|-------5--7--------------7--9---------9/------------10---------10--10------|
A|---7-----------------9--------------------10/12---------10/12------10-12---|
E|---------------------------------------------------------------------------|

e|---------------------------------------------------------------------------|
B|---------------------------------------------------------------------------|
G|---------------------------5-------------7------------10-------------------|
D|-10---12--12h14------5--7----------7--9------------------12--10------------|
A|-10---10--10------7-------------9------------10/12--------------12---------|
E|---------------------------------------------------------------------------|

e|---------------------------------------------------------------------------|
B|--------------------------------------13-15--15b-15b----13--12--11---------|
G|--9-----------------------------12----------------------------------12b----|
D|----12-9---------10---12--10-9---------------------------------------------|
A|----------11---------------------------------------------------------------|
E|---------------------------------------------------------------------------|

e|---------------------------------------------------------------------------|
B|-------------------13---------------------13-15-15b--15b----13-12-11-----13|
G|-12b--(12)-10--12b-----12b--(12)--10--9------------------------------12b---|
D|---------------------------------------------------------------------------|
A|---------------------------------------------------------------------------|
E|---------------------------------------------------------------------------|


e|---------------------------------------------------------|
B|-(13)--------------13--13-13--------------13-------------|
G|--12b-(12)10-12b-------12-10----12b-12-12-12---9/7-------|
D|---------------------------------------------------10----|
A|---------------------------------------------------------|
E|---------------------------------------------------------|


repeat chorus and en