Grateful Dead - Eyes Of The World Text Guitar Tab

Learn song with the online tabulature player
-------------------------------------------------------------------------------
                             Eyes of the World - GRATEFUL DEAD
-------------------------------------------------------------------------------
Tabbed by:24WildRovers -and- Thanks to JDarks from jdarks@jdarks.com for most of the tab

Email:barberbr2@wsdmail.net

     Some Intro Chords:
     My version:        JDarks Version:
e|----Emaj7---B----A--|-Emaj7-Dmaj7-Emaj7--|
B|----8/9-9--7-7--5-5-|--9-9---7-7--4-4-4--|
G|----7/8-8--8-8--6-6-|--8-8---6-6--4-4-4--|
D|----8/9-9--9-9--7-7-|--9-9---7-7--6-6-6--|
A|----6/7-7-----------|--7-7--------7-7-7--|
E|--------------------|--------------------|


    JDarks intro solo:
   /  /      /   /           /          /         /         /
e|-------------------------|-----------------------------------------|
B|--11--9h11p9---9---------|-12-10p9----10-9------9------------------|
G|-------------9---12-10p9-|---------11------11-9---11-9----9-9-9/8--|
D|-------------------------|-----------------------------11---------9|
A|-------------------------|-----------------------------------------|
E|-------------------------|-----------------------------------------|

   /       /    /              /             /     /     /    /
e|-----------------------------------------|----------------------------|
B|-----------------------------------------|----------------------------|
G|-8h9p8---8----------11-12h13-11-------12-|-11-------------------------|
D|-------9---11-13-14-------------14p13----|----14p13-13---11/9---------|
A|-----------------------------------------|----------------------------|
E|-----------------------------------------|----------------------------|

   /          /     /      /
e|----------------------------------|
B|---------------9--9----9h10-12----|
G|-------9h10h11--11--11------------|
D|-10h11----------------------------|
A|----------------------------------|
E|----------------------------------|

   /           /           /           /
e|-14-12-11----12-11---------------------------------------------|
B|----------14-------14-13-12-------14-12-------12---------------|
G|----------------------------13-14-------13-14------11-13---11--|
D|------------------------------------------------14-------14----|
A|---------------------------------------------------------------|
E|---------------------------------------------------------------|

   Verse Riff: (Palm Mute)
                           Bm       A
e|---------------------------------------------|
B|-------------------------7-7--7---5-5--5-----|
G|--------------9-8--------7-7--7---6-6--6-----|
D|---------9h11-----11-9---9-9--9---7-7--7-----|
A|--7-9/11-------------------------------------|
E|---------------------------------------------|

   Verse Part:
    Emaj7                 A                 
e|-------------------------------------------------------|
B|-----9--------9-----9---5--5---5---5--------5------5---|(Verse Riff)
G|-----8--------8-----8---6--7---6---6--------6------6---|
D|-----9--------9-----9---7--7---7---7--------7------7---|
A|-----7--------7-----7----------------------------------|
E|-------------------------------------------------------|
      Right outside this            lazy     summer home

   Emaj7                          A       A
e|----------------------------------------------------------|
B|--9--------9-----9-----9--------5-5-5---5----5--------5---|(Verse Riff)
G|--8--------8-----8-----8--------6-7-6---6----6--------6---|
D|--9--------9-----9-----9--------7-7-7---7----7--------7---|
A|--7--------7-----7-----7----------------------------------|
E|----------------------------------------------------------|
   You ain't got time to call your        soul a critic no

    A               C#m             B                    A       C#m
e|------------------------------------------------------------------------|
B|--5-------------------------------4---------------------2------5--5-----|
G|--6-------2h4/6----6-----6-6\4----4----------4h6b8r6p4--2--4-5-6--6-----|
D|--7---2h4-------4--6-6/7-------6--4---4h6---------------2--4-5-6--6-----|
A|-----------------------------------------------------------2-3-4--4-----|
E|------------------------------------------------------------------------|
   Right outside the   lazy  gate   of Winter's summer    home


e|---------------------------------------------------------------------|
B|-5--------------------4------------------2/3--3--3----2--------------|
G|-6---------------4h6--4---------4--------1/2--2--2----2-----------2--|
D|-6----------4h6-------4----4h6----6-4----3/4--4--4----2-----2h4---2--|
A|--------------------------------------------------------2h3-------1--|
E|----------------------------------------------------------------0----|
   Wonderin' where the nut-hatch winters, wings a mile long


e|-------------------------------------------------3-3--3---|
B|--------------------------2------0------5-5--5---5-5--5---|
G|----------2---------------2------2------6-6--6---5-5--5---|
D|----------2---------------2------2------7-7--7---5-5--5---|
A|----------1----------------------1------------------------|
E|----------------------------------------------------------|
    Just   carried   the   bird   away

     Chorus Riff:
    JDarks Version
e|--------------------------------8-8------8-------|
B|----------------8--7------------8-8------8-------|
G|------------7h9------9-7------9-----9--9---------|
D|--5p4h5-7/9--------------10--10----10-10---------|
A|-------------------------------------------------|
E|-------------------------------------------------|

    My Version
e|---------------------------------------------|
B|--------------------------5-5--3-3-----------|
G|----------7-6--------5-5--5-5--4-4-----------|
D|------7h9-----9--7---5-5--5-5--5-5-----------|
A|--7/9----------------3-3---------------------|
E|---------------------------------------------|


     Chorus:

e|--3---3------3--------3--3-------3-----------3---3---|
B|--3---3------3--------5--5-------5-----------3---5---|(Chorus Riff)
G|--4---4------4--------5--5-------5-----------4---5---|
D|--5---5------5--------5--5-------5-----------5---5---|
A|--5---5------5--------3--3-------3-----------5---3---|
E|--3---3------3-------------------------------3-------|
   Wake up to find out you are the eyes of the world

e|------3-------------3------------3--------------3--------------3---------2--|
B|------3-------------3------------5--------------5--------------5---------3--| 
G|------4-------------4------------5--------------5--------------5---------2--|
D|------5-------------5------------5--------------5--------------5---------0--|
A|------5-------------5------------3--------------3--------------3--3-3-4-4---|
E|------3-------------3-------------------------------------------------------|
   The heart has its beaches, its homelands and thoughts of its own

e|-------------------------------------------------------0-2-3--|
B|-3----3---3-------5---5--------5--------3--------3---3--------|
G|-2----2---2-------5---5--------5--------4--------4------------|(Chorus Riff)
D|-4----4---4-------5---5--------5--------5--------5------------|
A|--------------------------------------------------------------|
E|--------------------------------------------------------------|
  Wake now discover you are the song the morning brings


e|------3--------3-----------------3-------------3-------------2--|
B|------3--------3-----------------5-------------5-------------3--| 
G|------4--------4-----------------5-------------5-------------2--|
D|------5--------5-----------------5-------------5-------------0--|
A|------5--------5-----------------3-------------3---3-3-4-4------|
E|------3--------3------------------------------------------------|
   The heart has its seasons, its evenings and songs of  its  own

    Chorus Jam 1:
This jam is over the E major scale and the A major scale
                     Emaj7                  Bm
   JDarks Jam
   /  /    /  /            /         /         /        /
e|--9/11-11--9------------|------------------------------------------|
B|--------------9h10------|9-----------------------------------------|
G|-------------------9-11-|--11p9----9h11p9----9-9\8----8-8----------|
D|------------------------|-------11--------11--------9-----9-11/----|
A|------------------------|------------------------------------------|
E|-Emaj7------------------|------------------------------------------|

   /  /     /           /             /   /    / /
e|----------------------------------|--------------|
B|-------12p10----10-12p10----10-10-|-9---9-10p9---|
G|----11-------11----------11-------|---9----------|
D|-12-------------------------------|--------------|
A|----------------------------------|--------------|
E|-Bm-------------------------------|--------------|

   /    /       /          /         /     /        /                  /  
e|---------------------------------|-----------------------------------------|
B|---------------------------------|-----------------------------------------|
G|-------------------------------9-|-9-9\8-8------9--------------------------|
D|-11-9-------9-------9-11-10h11---|---------9-11---11-10p9----9-------9-----|
A|------10h11---10h11--------------|------------------------11---10h11---11/-|
E|---------------------------------|-----------------------------------------|

  /        /       /       /       /        /        /       /
e|-------------------------------|--------------------------------------|
B|-------------------------------|--------7-----------------------------|
G|-------------------7-----7-7-9-|-7-9-10---10-9p7---7h9p7---7------9---|
D|-------7-----7-8h9---7h9-------|-----------------9-------9---9/11-----|
A|---8h9---8h9-------------------|--------------------------------------|
E|-------------------------------|--------------------------------------|

   /        /        /          /            /     /              /
e|-----------------------------------------|-12-12-11-11-12-12-11-11-12-|-10--|
B|------------------------------9-10-11-12-|-----------------------------------|
G|-9-9-9\8---------9-------9h11------------|-----------------------------------|
D|---------9--10h11--10h11-----------------|-----------------------------------|
A|-----------------------------------------|-----------------------------------|
E|-----------------------------------------|-----------------------------------|

e|-----------------------------------|
B|--14--14---12--12-----9------------|
G|--13--13---13--13-----8------------|
D|--14--14---14--14-----9------------|
A|-----------------------------------|
E|-----------------------------------|

       Emaj7                 A           let ring--->
e|------------------------------------------------------|
B|------9---------9----------5---------5--5----------9--|(Verse Riff)
G|------8---------8----------6---------6--6----------8--|
D|------9---------9----------7---------7--7----------9--|
A|------7---------7----------------------------------7--|
E|------------------------------------------------------|
 There comes a redeemer and he slowly too    fades away
   Sometimes  we live no particular   way    but our own


e|----------------------------------------------------------------|
B|-------5-----------5---------5----------------5------------9----|(Verse Riff)
G|-------6-----------6---------6----------------6------------8----|
D|-------7-----------7---------7----------------7------------9----|
A|-----------------------------------------------------------7----|
E|----------------------------------------------------------------|
  There follows his wagon   behind him that's loaded  with clay
    Sometimes   we visit your country      and live in your home

     A                           C#m                   B
e|--------------------------------------------------------------------------|
B|---5---------------5------------5-----------5--------4------4-4--4------4-|
G|---6---------------6------------6-----------6--------4------4-4--4------4-|
D|---7---------------7------------6-----------6--------4------4-4--4------4-|
A|--------------------------------4-----------4-----------------------------|
E|--------------------------------------------------------------------------|
    Seeds that were silent   all burst into bloom and decay-----> 
Sometimes        we ride on your horses               sometimes we walk alone

  /     /                 /   /
e|---------------------------------|
B|---------------------------------|
G|---------------------------------|
D|---9--9-----------------7--------|
A|----------------9--7-------------|
E|---------------------------------|


   E                            A                           E
e|------------------------------------------------------------|
B|-9---------------9------------5--------------5------------9-|
G|-9---------------9------------6--------------6------------9-|
D|-9---------------9------------7--------------7------------9-|
A|-7----------------------------------------------------------|
E|------------------------------------------------------------|
  Night comes so quiet     its close   on the heels of the day
  Sometimes   the songs that we hear are just songs of our own

  / /      /       /      /     / /     /
e|----------------------|--------------------|
B|----------------------|--------------------|
G|----------------------|--------------------|
D|-----------------2----|--------------------|
A|-----------2---2---4--|-0-0---0-3-3---3----|
E|-----2-3h4---4--------|-----0-------3------|



Repeat Chorus:

Jam and fade out on Emaj7 and Bm chords/scales



JDarks version was mostly based on "Dick's Picks 31" But also check out his website at jdarks.com

email me or JDarks if there is any problem with the tab