Grateful Dead - Help On The Way Text Guitar Tab

Learn song with the online tabulature player
Help on the Way
Bass:
|--------------------------------------------------|
|--------------------------------------------------|
|------------------------------6h8---8/11-10-8-----|
|--------------------------6h8---------------------|
Guitar:
|---8--8-----8--8----------------------------------|
|---9--9-----9--9----------------------------------|
|---10-10----10-10---------------------------------|
|---10-10----10-10---------------------------------|
|---8--8-----8--8----------------------------------|
|--------------------------------------------------|

Bass:
|--------------------------------------------------|
|--------------------------------------------------|
|--------------------------------8p6---------------|
|---------------------------------------8p6-9-8----|
Guitar:
|---8--8-----8--8----------------------------------|
|---9--9-----9--9----------------------------------|
|---10-10----10-10---------------------------------|
|---10-10----10-10---------------------------------|
|---8--8-----8--8----------------------------------|
|--------------------------------------------------|

Bass:
|--------------------------------------3-3-3p2---------|
|----0h2-------------------------------------------2/4-|
|-0h2----4---0h2-4h5-4-2---0h2-4-2-0-------------------|
|------------------------------------------------------|
Guitar:
|---8--8-----8--8--------------------------------------|
|---9--9-----9--9--------------------------------------|
|---10-10----10-10-------------------------------------|
|---10-10----10-10-------------------------------------|
|---8--8-----8--8--------------------------------------|
|------------------------------------------------------|

Bass:
|-----------------------------------------------|
|----------------------------10-----------------|
|--------------------8/10-11----13-11-10--------|
|----------------------------------------11-----|
Guitar:
|---8--8-----8--8-------------------------------|
|---9--9-----9--9-------------------------------|
|---10-10----10-10------------------------------|
|---10-10----10-10------------------------------|
|---8--8-----8--8-------------------------------|
|-----------------------------------------------|

E--------------------8-----------------------------------8--|
B--------------------9-----------------------------------8--|
G----------5---------10----------------------5-----------8--|
D---3^5--6---8--5----10--------------3^5--6-----8--5-----10-|
A--------------------8--------------------------------6--10-|
E--------------------------------------------------------8--|
                     Paradise waits

E----10--10--10---8--8--8----8-------------4-----------------|
B----11--11--11---8--8--8----8---6---6-----6-----------------|
G----12--12--12---8--8--8----8---7---7-----5-----------------|
D--------------------------------8---8-----6-----------------|
A--------------------------------8---8-------------6-7-8-6-5-|
E--------------------------------6---6-----------8-----------|
     On the crest of a wave, her angels in flame


E--------------------8-----------------------------------8--|
B--------------------9-----------------------------------8--|
G----------5---------10----------------------5-----------8--|
D---3^5--6---8--5----10--------------3^5--6-----8--5-----10-|
A--------------------8--------------------------------6--10-|
E--------------------------------------------------------8--|
                     She has no pain

E---10--10--10---8---8--8------------------4-----------------|
B---11--11--11---8---8--8--------6--6------6-----------------|
G---12--12--12---8---8--8--------7--7------5-----------------|
D--------------------------------8--8------6-----------------|
A--------------------------------8--8--------------6-7-8-6-8-|
E--------------------------------6--6------------8-----------|
    Like a child she is pure she is not to blame

E-----------------------------|-----------------------------|
B------------6------4---3-----|-3-----3---6-----4------3----|
G--------5--------------------|----5------------------------|
D-----6------6------5---3-----|-----------6-----5------3----|
A--8--------------------------|-----------------------------|
E-----------------------------|-----------------------------|
             poised for flight           wings spread bright

E------------------------------3-3--1--------3--3---3--3---3-|
B--------3----4-----3----1--------------4----1--1---1--1---1-|
G-----5--------------------------------------1--1---1--1---1-|
D--6----------5-----3----1-------------------3--3---3--3---3-|
A---------------------------------------3----3--3---3--3---3-|
E--------------------------------------------1--1---1--1---1-|
             spring from night into the sun

E--------------------8-----------------------------------8--|
B--------------------9-----------------------------------8--|
G----------5---------10----------------------5-----------8--|
D---3^5--6---8--5----10--------------3^5--6-----8--5-----10-|
A--------------------8--------------------------------6--10-|
E--------------------------------------------------------8--|
                     Don't stop to run

E---10--10--10---8---8--8-------------------4----------------|
B---11--11--11---8---8--8--------6----6-----6----------------|
G---12--12--12---8---8--8--------7----7-----5----------------|
D--------------------------------8----8-----6----------------|
A--------------------------------8----8------------6-7-8-6-8-|
E--------------------------------6----6----------8-----------|
    She can fly like a lie, she can't be outdone

E--------------------8-----------------------------------8--|
B--------------------9-----------------------------------8--|
G----------5---------10----------------------5-----------8--|
D---3^5--6---8--5----10--------------3^5--6-----8--5-----10-|
A--------------------8--------------------------------6--10-|
E--------------------------------------------------------8--|
                     Tell me the cost

E---10--10--10---8---8--8----------------------4-----------------|
B---11--11--11---8---8--8--------6--6----------6-----------------|
G---12--12--12---8---8--8--------7--7----------5-----------------|
D--------------------------------8--8----------6-----------------|
A--------------------------------8--8------------------6-7-8-6-8-|
E--------------------------------6--6----------------8-----------|
    I  can  pay let  me go tell me love is not lost

E--------------------8-----------------------------------8--|
B--------------------9-----------------------------------8--|
G----------5---------10----------------------5-----------8--|
D---3^5--6---8--5----10--------------3^5--6-----8--5-----10-|
A--------------------8--------------------------------6--10-|
E--------------------------------------------------------8--|
                     Sell everything

E---10--10--10---8---8--8------------------4-----------------|
B---11--11--11---8---8--8--------6--6------6-----------------|
G---12--12--12---8---8--8--------7--7------5-----------------|
D--------------------------------8--8------6-----------------|
A--------------------------------8--8--------------6-7-8-6-8-|
E--------------------------------6--6------------8-----------|
   Without love day to day      insanity's king

E-----------------------------|-----------------------------|
B------------6------4---3-----|-3-----3---6-----4------3----|
G--------5--------------------|----5------------------------|
D-----6------6------5---3-----|-----------6-----5------3----|
A--8--------------------------|-----------------------------|
E-----------------------------|-----------------------------|
             I     will pay               Day   by     Day

E---------------------------------3-3--1--------3--3---3--3---3-|
B--------3----4-------3-----1--------------4----1--1---1--1---1-|
G-----5-----------------------------------------1--1---1--1---1-|
D--6----------5-------3-----1-------------------3--3---3--3---3-|
A------------------------------------------3----3--3---3--3---3-|
E-----------------------------------------------1--1---1--1---1-|
              anyway, lock, bolt, and     key.

E--------------------8-----------------------------------8--|
B--------------------9-----------------------------------8--|
G----------5---------10----------------------5-----------8--|
D---3^5--6---8--5----10--------------3^5--6-----8--5-----10-|
A--------------------8--------------------------------6--10-|
E--------------------------------------------------------8--|
                     Crippled but free

E---10--10--10---8---8--8----------------------4----------------|
B---11--11--11---8---8--8-----------6----6-----6----------------|
G---12--12--12---8---8--8-----------7----7-----5----------------|
D-----------------------------------8----8-----6----------------|
A-----------------------------------8----8------------6-7-8-6-8-|
E-----------------------------------6----6----------8-----------|
    I was blind all the time I was learning to see.


E--------------------8-----------------------------------8--|
B--------------------9-----------------------------------8--|
G----------5---------10----------------------5-----------8--|
D---3^5--6---8--5----10--------------3^5--6-----8--5-----10-|
A--------------------8--------------------------------6--10-|
E--------------------------------------------------------8--|
                     Help on the Way

E---10--10--10---8---8--8----------------------4-----------------|
B---11--11--11---8---8--8--------6--6----------6-----------------|
G---12--12--12---8---8--8--------7--7----------5-----------------|
D--------------------------------8--8----------6-----------------|
A--------------------------------8--8------------------6-7-8-6-8-|
E--------------------------------6--6----------------8-----------|
    Well I know  only   this   I've got you    today

E--------------------8-----------------------------------8--|
B--------------------9-----------------------------------8--|
G----------5---------10----------------------5-----------8--|
D---3^5--6---8--5----10--------------3^5--6-----8--5-----10-|
A--------------------8--------------------------------6--10-|
E--------------------------------------------------------8--|
                     Don't fly Away

E---10--10--10---8---8--8----------------------4-----------------|
B---11--11--11---8---8--8--------6--6----------6-----------------|
G---12--12--12---8---8--8--------7--7----------5-----------------|
D--------------------------------8--8----------6-----------------|
A--------------------------------8--8------------------6-7-8-6-8-|
E--------------------------------6--6----------------8-----------|
   'Cause Iknow what I love and  I want you to stay

E-----------------------------|-----------------------------|
B------------6------4---3-----|-3-----3---6-----4------3----|
G--------5--------------------|----5------------------------|
D-----6------6------5---3-----|-----------6-----5------3----|
A--8--------------------------|-----------------------------|
E-----------------------------|-----------------------------|
             I     will stay              One  more    day

E---------------------------------3-3--1----------3--3---3--3---3-|
B--------3----4-------3-----1----------------4----1--1---1--1---1-|
G-----5-------------------------------------------1--1---1--1---1-|
D--6----------5-------3-----1---------------------3--3---3--3---3-|
A--------------------------------------------3----3--3---3--3---3-|
E-------------------------------------------------1--1---1--1---1-|
              Like    I    say    Honey it's you

E--------------------8-----------------------------------8--|
B--------------------9-----------------------------------8--|
G----------5---------10----------------------5-----------8--|
D---3^5--6---8--5----10--------------3^5--6-----8--5-----10-|
A--------------------8--------------------------------6--10-|
E--------------------------------------------------------8--|
                     Makin' it Too

E---10--10--10----8---8--8------------------------4----------------|
B---11--11--11----8---8--8------------6---6-------6----------------|
G---12--12--12----8---8--8------------7---7-------5----------------|
D-------------------------------------8---8-------6----------------|
A-------------------------------------8---8--------------6-7-8-6-8-|
E-------------------------------------6---6------------8-----------|
    Without love in the dream it will ne-ver come true

                 Slipknot!

This part 4x
      Fm                   Fm                  Cm       Fm
E-----8---8------8---8--|-----------------------------------|
B-----9---9------9---9--|-----------------------------------|
G-----10--10-----10--10-|----------5------------------------|
D-----10--10-----10--10-|-------6-----8--5-----------5------|
A-----8---8------8---8--|--6^8--------------6-----6-----8---|
E-----------------------|----------------------8------------|

   Fm
E-----------------------------------------------------------|
B-----------------------------------------------------------|
G--------5--------------------------------------------------|
D-----6-----8--6--------------------------------------------|
A--8--------------------------------------------------------|
E-----------------------------------------------------------|

   F#-7
E-----------5--8--5--------5--------------------------------|
B--------7-----------7--------7--------7--------------------|
G--5--8-----------------8--------8--5-----8--5--------------|
D-----------------------------------------------7-----------|
A-----------------------------------------------------------|
E-----------------------------------------------------------|

           F#-7
 4|---|---|---|---|---|
  |   |   X   |   X   |
  |---|---|---|---|---|
  |   |   |   X   |   X
  |---|---|---|---|---|
  |   |   |   |   |   |
  |---|---|---|---|---|
  |   |   |   |   |   |
  |---|---|---|---|---|

   Gm                                        Dm        Gm
E-----------------------------------------------------------|
B-----------------------------------------------------------|
G-----------7-------------------7---------------------------|
D--------8-----10-----8------8-----10--7------------7-------|
A--8^10------------------10---------------8------8-----10---|
E--------------------------------------------10-------------|

   Gm
E-----------------------------------------------------------|
B-----------------------------------------------------------|
G--------7--------------------------------------------------|
D-----8-----10--8-------------------------------------------|
A--10-------------------------------------------------------|
E-----------------------------------------------------------|
   G#-7
E-----------7-10--7--------7--------------------------------|
B--------9-----------9--------9--------9--------------------|
G--7--10----------------10------10--7-----10-7--------------|
D-----------------------------------------------9-----------|
A-----------------------------------------------------------|
E-----------------------------------------------------------|

           G#-7
 6|---|---|---|---|---|
  |   |   X   |   X   |
  |---|---|---|---|---|
  |   |   |   X   |   X
  |---|---|---|---|---|
  |   |   |   |   |   |
  |---|---|---|---|---|
  |   |   |   |   |   |
  |---|---|---|---|---|


   Em                    G             F#m
E---------------------|--17--14-----------------------------|
B-------------12--15--|---------15-----17--14---------------|
G---------12----------|------------16-----------------------|
D--12^14--------------|-------------------------------------|
A---------------------|-------------------------------------|
E---------------------|-------------------------------------|

   F               Em
E--15--12---------------------------------------------------|
B----------13------15--12-----------------------------------|
G--------------14----------12-------------------------------|
D------------------------------14---------------------------|
A-----------------------------------------------------------|
E-----------------------------------------------------------|

    Dm*                Em*             D                  A
E-----------------------------------------------------------|
B-----------------------------------------------------------|
G---14--11-------------12--9--------------------------------|
D-----------12----------------10-------12--9----------------|
A---------------14----------------12----------10------10^12-|
E-------------------------------------------------12--------|

*  Bobby plays these chords:

      Dm      Em

E-----12------14--------------------------------------------|
B-----12------14--------------------------------------------|
G-----12------14--------------------------------------------|
D-----------------------------------------------------------|
A-----------------------------------------------------------|
E-----------------------------------------------------------|

     Am                                 Em       Am
E-----------------------------------------------------------|
B----------5----------------5-------------------------------|
G-------5-----7----5-----5-----7--4-----------4-------------|
D----7----------------7--------------5-----5-----7----------|
A---------------------------------------7-------------------|
E-----------------------------------------------------------|

   3x
E------------------|--5------------5------------------------|
B------------------|--7------------5------------------------|
G------------------|--7------------5------------------------|
D------------------|--7------------7------------------------|
A------------5--7--|--5------------7------------------------|
E---5--7--8--------|---------------5------------------------|


    Am                                 Em       Am
E-----------------------------------------------------------|
B----------5----------------5-------------------------------|
G-------5-----7----5-----5-----7--4-----------4-------------|
D----7----------------7--------------5-----5-----7----------|
A---------------------------------------7-------------------|
E-----------------------------------------------------------|

Am
E-----------------------------------------------------------|
B----------5------------------------------------------------|
G-------5-----7----5----------------------------------------|
D----7------------------------------------------------------|
A-----------------------------------------------------------|
E-----------------------------------------------------------|

   G#-7
E-----------7-10--7--------7--------------------------------|
B--------9-----------9--------9--------9--------------------|
G--7--10----------------10------10--7-----10-7--------------|
D-----------------------------------------------9-----------|
A-----------------------------------------------------------|
E-----------------------------------------------------------|

   Am                                 Em       Am
E-----------------------------------------------------------|
B----------5----------------5-------------------------------|
G-------5-----7----5-----5-----7--4-----------4-------------|
D----7----------------7--------------5-----5-----7----------|
A---------------------------------------7-------------------|
E-----------------------------------------------------------|

    Am
E-----------------------------------------------------------|
B----------5------------------------------------------------|
G-------5-----7----5----------------------------------------|
D----7------------------------------------------------------|
A-----------------------------------------------------------|
E-----------------------------------------------------------|

   G#-7
E-----------7-10--7--------7--------------------------------|
B--------9-----------9--------9--------9--------------------|
G--7--10----------------10------10--7-----10-7--------------|
D-----------------------------------------------9-----------|
A-----------------------------------------------------------|
E-----------------------------------------------------------|

   A#-7
E-----------9-12--9--------9--------------------------------|
B--------11----------11------11-------11--------------------|
G--9--12----------------12------12--9-----12-9--------------|
D-----------------------------------------------11----------|
A-----------------------------------------------------------|
E-----------------------------------------------------------|

   Em                    G             F#m
E---------------------|--17--14-----------------------------|
B-------------12--15--|---------15-----17--14---------------|
G---------12----------|------------16-----------------------|
D--12^14--------------|-------------------------------------|
A---------------------|-------------------------------------|
E---------------------|-------------------------------------|

   F               Em
E--15--12---------------------------------------------------|
B----------13------15--12-----------------------------------|
G--------------14----------12-------------------------------|
D------------------------------14---------------------------|
A-----------------------------------------------------------|
E-----------------------------------------------------------|
    Dm                Em              D                  A
E-----------------------------------------------------------|
B-----------------------------------------------------------|
G---14--11-------------12--9--------------------------------|
D-----------12----------------10-------12--9----------------|
A---------------14----------------12----------10------10^12-|
E-------------------------------------------------12--------|

     A   Cmaj7                A
E----0----0-------------------------------------------------|
B----2----0------13^14---12---10----------------------------|
G----2----0-------------------------------------------------|
D----2----2------13^14---12---11----------------------------|
A----0----3-------------------------------------------------|
E-----------------------------------------------------------|

     Then this leads into the A - G - D - G Chord proggresion for Franlin't Tower