Grateful Dead - Lost Sailor Text Guitar Tab

Learn song with the online tabulature player
Both parts should be done several times before the lyric begins.
Intro/Verse:
 Jerry
E-----------------------------------------------------------|
B---------14-----------14--12------------14---------14--12--|
G---1^10---------1^10-------------1^10--------1^10----------|
D-----------------------------------------------------------|
A-----------------------------------------------------------|
E-----------------------------------------------------------|

 Bob
E-------------9-----------------9-----7---------------------|
B-------------10----------------10----7---------------------|
G---------11----------------11--------7---------------------|
D-----11----------------11------------9---------------------|
A--9-----------------9----------------10--------------------|
E-------------------------------------7---------------------|
                        Compass card is spinnin'
                 Helm is swingin'

E-----------------------------------------------------------|
B------------8--7---------------8--7------------------------|
G---------9--------9---------9--------9---------------------|
D------9------------------9---------------------------------|
A---7------------------7------------------------------------|
E-----------------------------------------------------------|
    To and fro

                                  x3
E--9---------7-|-------------------|
B--10--------7-|.-----------------.|
G--11--------7-|--6--6h7p6---------|
D--11--------9-|------------9--7---|
A--9---------10|.-----------------.|
E------------7-|-------------------|
    Oooh,         where's the
                  dog star
                  Oooh,

E-----------------------------------------------------------|
B------------8--7---------------8--7------------------------|
G---------9--------9---------9--------9---------------------|
D------9------------------9---------------------------------|
A---7------------------7------------------------------------|
E-----------------------------------------------------------|
    Where's the moon?


E---------------------0--0-----------0--|
B--3p2----------------2--2-----------2--|
G-------4-------------2--2-----------2--|
D---------------------2--2-----------2--|
A-----------------0---0--0-----------0--|
E------------2h3------------------------|
                            You're a lost

E-----------2-------2---------------------------------------|
B-----------3-------3---------------------------------------|
G-----------2-------2---------------------0-----------------|
D-----------0-------0---4--0--2--4-----4-----2--------------|
A--------0--------------------------------------------------|
E---2h3-----------------------------------------------------|
            sailor

E---0----------------------------0---5--8-------------------|
B---0----------------------------2---2-----11--8--10--------|
G---0----------0--------------0--2---2----------------------|
D---2----2----------4---2---2----2---2----------------------|
A---2----------------------------0---0----------------------|
E---0-------------------------------------------------------|
       You've been too long at sea


E---9----------------7-----|
B---10---10----------7-----|
G---11-------11------7-----|
D---11-----------11--9-----|
A---9----------------10----|
E--------------------7-----|

    ---Repeat previous lines for second verse---

  Price for Being free:
E----2-----2-----0-----2----|-----0---------2---------|
B----2-----3-----0-----3----|-----2----1----3----3----|
G----4-----4-----0-----4----|-----2----0----4----3----|
D----4-----4-----2-----4----|-----2----0----4----0----|
A----2-----2-----2-----2----|-----0----x----2----x----|
E----------------0----------|----------3---------1----|
   Now the shoreline beckons  It is the price for being

E------0-------0-----------------|
B------2----2-----2---5^7--5-----|
G------2---------------------6p4-|
D------2-------------------------|
A------0-------------------------|
E-----------------3--------------|
       free

E---9----------------7-----|
B---10---10----------7-----|
G---11-------11------7-----|
D---11-----------11--9-----|
A---9----------------10----|
E--------------------7-----|

   The Seabirds                                          x11
E--------0-----0--0|----------------------4-------------4--|
B--2--3--2--3-----2|.---------------------4-------------5-.|
G--------2--------2|----------------------4-------------4--|
D--------2--------2|----------------------6-------------4--|
A--------0---------|.---------------------6-------------6-.|
E-----------------3|----------------------4-------------4--|
                     Yeah, the sea birds cry
                             And there's a ghost wind blowin
                                         (2x through no lyric)
                              And it's callin' you
                                To that misty
                               ****************************
                               1x through no lyric
                              Till the chains of your dreams
                                    are broken
                              1x through no lyric
                                         no           place


E------------2----2---4------------|
B------------4----4------4---------|
G------------4----4---------4------|
D------------4----4----------------|
A------------2----0----------------|
E----------------------------------|
   swirlin' sea

E---4----------4----------|
B---6----------7----------|
G---4----------4----------|
D---4----------4----------|
A---6----------6----------|
E---4----------4----------|
 in this world    you can

E-----0---------2---------|------------0--|
B-----2----1----3----3----|------------2--|
G-----2----0----4----3----|------------2--|
D-----2----0----4----0----|------------2--|
A-----0----x----2----x----|------------0--|
E----------3---------1----|---------------|
      Be-eeeeeeeeeeeee


  ---Repeat everthing for third verse---