Grateful Dead - Samson And Delilah Text Guitar Tab

Learn song with the online tabulature player
(^) Slide Up  (\) Slide Down  (h) Hammer  (p) Pull Off  (b) Bend


E-----------------------------------------------------------|
B---12---10-------------------------------------------------|
G-----------------12-------10-------------------------------|
D----------------------12-----------------------------------|
A-----------------------------------------------------------|
E-----------------------------------------------------------|


E---------------------------3-------------------------------|
B---------------------------3-------------------------------|
G---------------------------4-------------------------------|
D---4----5--------5---------5-------------------------------|
A---2----3--------4----4----5-------------------------------|
E----------------------2----3-------------------------------|

     G                               C          G
E----------13-----------------------------------------------|
B----15-------15-----13--15p13-------13--15p13--12----------|
G-------------------------------15--------------------------|
D-----------------------------------------------------------|
A-----------------------------------------------------------|
E-----------------------------------------------------------|
     G                               D       G
E----------13-----------------------------------------------|
B----15-------15-----13--15p13------------------------------|
G-------------------------------15-----------12-------------|
D------------------------------------15--12-----------------|
A-----------------------------------------------------------|
E-----------------------------------------------------------|

Solo


E-------15p13------15-----15p13------15---------------------|
B---15---------15----------------15-------------------------|
G-----------------------------------------------------------|
D-----------------------------------------------------------|
A-----------------------------------------------------------|
E-----------------------------------------------------------|

E---19--15--------------------------------------------------|
B-----------13^15\13------------------------13^15\13--------|
G---------------------15--12-------12-----------------12----|
D-----------------------------15-------12-------------------|
A-----------------------------------------------------------|
E-----------------------------------------------------------|