Gravediggaz - 1-800-suicide Text Guitar Tab

Learn song with the online tabulature player
1800 Suicide by Gravediggaz

standard tuning

           main riff
|--7---------------------------10----------|
|-----------------5-----------8--8---------|
|----------8-------------------------------|
|------------------------------------------|

           Filler riff in between 2nd chorus and 3rd verse
|--------------------------------------------------|
|--------------------------------------------------|
|--------------------------------------------------|
|--6------------------6------------------6---------|

It's far from challenging, just repeat the main line over and over